Las Guerras, Vox Dei (acordes) (ver 2)

Autor: Anónimo | 29189 visualizaciones



Intro:
E||--------------------||
B||------------8-------||
G||--9---------7--9----|| x8  E5
D||--9----7^9----------||
A||--7-----------------||
E||--0-----------------||

E5
Vengo de muy lejos a vivir aqui
en la casa que esta detras del rio
vengo a buscar nomas lo que es mio
es una promesa que debo cumplir

A5
voy a recortar la hiedra que la envuelve y le da frio

E5
y a voltear el muro que me cierra
que me cierra,que me cierra el camino

B5
y a quemar los arboles que no son mios

intro y fin del primer solo:
E||-------------------------------------------------------------||
B||-------------------------------------------------------------||
G||---------12^14--14b16r14--12--14b16r14--12-------------------||
D||--12^14------------------------------------14-13-12----12-14-||
A||----------------------------------------------------14-------||
E||-------------------------------------------------------------||

--Solo en pentatonica de Em sobre la progresion de la primer estrofa (E5 A5 E5 B5)-  

E
Vengo de muy lejos a vivir aqui
en la casa que esta detras del rio
vengo a buscar nomas lo que es mio
es una promesa que debo cumplir


(G# F#-G#)x3                                               G#:4665xx
  F#-G#           F#-G#        F#-G#                       F#:2443xx
En el campo se escucho gritar
      F#-G#           F#-G#                    F#-G#
quien sera capaz de vencerlo al gran Goliath
                           F#-G#
como estar tan equivocado
                           F#-G#
para que armas en la mano
            F#-G#          F#-G#
mira,piensa,   dime como estas
          F#-G#   F#-G#       F#-G#     
como vienes asi      No no no no no no

(G# F#-G#)x4         G#:466544
                     F#:244322

E||----------------------------------------------||
B||---8--------------8~----8---------------------||
G||-----10-7-----------------10-7----------7~----||
D||----------10-8-----------------10-8-----------||
A||---------------10-------------------10--------||
E||----------------------------------------------||

(misma progresion)
Moriras Goliath por querer ganar
y empezo a correr al encuentro del gran David
una piedra te hara caer y tu espada te matara
armas,fuerza,de que te sirvio
pero esta historia no ha terminado.No no no no no no

sobre la misma progresion solo de armonica y luego de guitarra

riff principal de la parte instrumental:
E||--------3-----3^5--3------------3-----3^5--3---------||
B||--5-5-5-3--5--3----3-5---4-4-4--3--4--3----3--5------||
G||-------------------------5-5-5-----5----------4------||
D||-----------------------------------------------------||
A||-----------------------------------------------------||
E||-----------------------------------------------------||

Fuente original: LaCuerda
Colaborador original: roge [[email protected]]





Calificar esta versión:
Aviso: Este fichero es trabajo propio de su transcriptor y representa su interpretación personal de la canción. El material contenido en esta página es para exclusivo uso privado, por lo que se prohibe su reproducción o retransmisión, así como su uso para fines comerciales.
Más versiones de Las Guerras, Vox Dei
Las Guerras
acordes
Las Guerras (ver 2)
acordes
Las Guerras
tablatura
Descubre más canciones de Vox Dei