Bye Bye, Vilma Palma E Vampiros (bajo) (ver 2)

Autor: Anónimo | 18175 visualizaciones

Detallada, pues hace varios cambios no como la version pasada.

G--------------------------------------------------------------------
D--------------------------------------------------------------------
A---------------------------------------4---------------------4------
E2--2-2--2-4--4-4--4--2--2-2--2--4--4--6-6--4-2--2-2--2-4--4-6-6--4-2
B--------------------------------------------------------------------
                    Llevame a la estaion...
G-----------------------------------------------------------
D--------------6-6------------------------------------6-4---
A----------------------------1--1-1--1--2--2-2--2-4--4---6-4
E2--2-2--2--4-4-4-4-2--2-2--2-------------------------------
B-----------------------------------------------------------
  Ya no puedo evitar...                   Si asi es como...
G---------------------------------------------------------------------------
D-------------------------------6-4----------------1—1-1--1------------4----
A----------1--1-1-1--2--2-2--2-4---6-4-6--1--1-1--1--------4--4-4--4----4---
E-2--2-2--2---------------------------------------------------------2-2--2-4
  si asi es como lo vez...               Dejame, dejame...
G ---------------------------------------------------------------------6-6----
D ---------1--1-1--1------------------------------------------------------6-4-
A 1--1-1--1----------2X8--4X5---------------------1--1-1--1-2--2-2--2-4------6
E ---------------------------4slide9slide2--2-2--2----------------------------
  Dejame, dejame...
G -----------------------------6---------------------------------------------
D ------------------------------6-4--------------------------------------6-6-
A ---------1--1-1--1-2-2-2--2-4----6-4----------------4----------------------
E 2--2-2--2---------------------------2--2-2--2-4--4-6—6-4-2--2-2--2-4--4-4-4
  Te dire solo adios...                a veces buscas...
G ------------------------------6-6-------------------------------------------
D ---------------------------------6-4----------------------------------6-4---
A ---------1--1-1--1-2--2-2--2-4------6---------1--1-1--1-2--2-2--2-4--2---6-4
E 2--2-2--2----------------------------2--2-2--2------------------------------
  Entonces queres ver...             buscando una razon...
G -------------------------------------------------------------------------
D ---------1--1-1--1-------------4-4----------1--1-1--1--------------------
A 1--1-1--1---------4--4-4--4--------1--1-1--1---------2X8-4X5-------------
E ---------------------------2--2-2-2-------------------------4slide9slide2
  dejame, dejame...                    Dejame, dejame...
G ------------------------------6-6----------------------------------6------
D ---------------------------------6-4--------------------------------6-4---
A ---------1--1-1--1-2--2-2--2-4------6---------1--1-1--1-2--2-2--2-4----6-4
E 2--2-2--2----------------------------2--2-2--2----------------------------

G------------------------------6-6----------------------------------
D---------------------------------6-4-------------------------------
A---------1--1-1--1-2--2-2--2-4------6---------1--1-1--1-2--2-2--2-4
E2--2-2--2----------------------------2--2-2--2---------------------
B-------------------------------------------------------------------
            Por que duele entender...
G ---------------------------------------------
D 6-4----------------1--1-1--1------------4----
A ---6-4-6--1--1-1--1---------4--4-4--4----4---
E -------------------------------------2-2--2-4
  no simules piedad...                  dejame, dejame...
G --------------------------------------------------------------------
D ---------1--1-1--1--------------------------------------------------
A 1--1-1--1---------2X8-4X5---------------------1--1-1--1--2--2-2--2-4
E -------------------------4slide9slide2--2-2--2----------------------
         Dejame, dejame...                  dejame, dejame...
G 6-----------------------------------------------------------------------6------
D -6-4---------------------------------------------------------------------6-4---
A ----6-4---------1--1-1--1-2--2-2--2-4--4-4---------1--1-1--1-2--2-2--2-4----6-4
E -------2--2-2--2--------------------------2--2-2--2----------------------------
  Dejame, dejame...                    dejame, dejame...
G ------------------------------6------------------------------------6------
D -------------------------------6-4----------------------------------6-4---
A ---------1--1-1--1-2--2-2--2-4----6-4---------1--1-1--1-2--2-2--2-4----6-4
E 2--2-2--2----------------------------2--2-2--2----------------------------
  dejame, dejame...                    Coristas.           
G ------------------------------6-------------------6------
D -------------------------------6-4-----------------6-4---
A ---------1--1-1--1-2--2-2--2-4----6-4-----------------6-4
E 2--2-2--2----------------------------2-1---2-1-----------
B ----------------------------------------4-2---4--2-------
  Dejame, dejame...                    dejame, dejame...
G ------------------------------6-------------------------------------6----
D -------------------------------6-4-----------------------------------6-4-
A ---------1--1-1--1-2--2-2--2-4----6-4------2---1--1-1--1-2--2-2--2-4----6
E 2--2-2--2----------------------------2--2-4-4-2--------------------------
  Dejame, dejame...                    dejame, dejame...
G ------------------------------6------------------------------------6-----------------
D -------------------------------6-4----------------------------------6-4--------------
A ----------------------------------6-4---------1--1-1--1-2--2-2--2-4----6-------------
E ---------1--1-1--1-2--2-2--2-4-------2--2-2--2--------------------------2-1---2-1---2
B 2--2-2--2------------------------------------------------------------------4-2---4-2-
Calificar esta versión:
Aviso: Este fichero es trabajo propio de su transcriptor y representa su interpretación personal de la canción. El material contenido en esta página es para exclusivo uso privado, por lo que se prohibe su reproducción o retransmisión, así como su uso para fines comerciales.
Más versiones de Bye Bye, Vilma Palma E Vampiros
Bye Bye
acordes
Bye Bye (ver 2)
acordes
Bye Bye
tablatura
Bye Bye (ver 2)
tablatura
Bye Bye
bajo
Bye Bye (ver 2)
bajo
Descubre más canciones de Vilma Palma E Vampiros