Bye Bye, Vilma Palma E Vampiros (bajo)

Autor: Anónimo | 28700 visualizaciones

Tabbed by: Roberto 'Skywalker' Ferrín

Afinación: standard


Intro:
G|---------------------|------------------------|
D|---------------------|------------------------|
A|---------------------|------------------4-----|
E|-2--2-2--2-4--4-4--4-|-2--2-2--2-4--4-6---6-4-|

G|------------------------|---------------------|
D|------------------------|---------------------|
A|------------------4-----|---------------------|
E|-2--2-2--2-4--4-6---6-4-|-2--2-2--2-4--4-4--4-|


Verse/chorus:
G|----------------------------------------------|
D|----------------------------------------------|
A|------------------------------------11-9------| X 2
E|-2--2-2--2-6--6-6--6-7--7-7--7-9--9------11-9-|

G|--------------------------------------------|
D|-----------1--1-1--1------------------------|
A|-1--1-1--1-----------4--4-4--4----------2---|
E|-------------------------------2--2-2-2---2-|
   Si así es como me ves...

G|-----------------------------------------------------|
D|-----------1--1-1--1---------------------------------|
A|-1--1-1--1-----------2-2-2-2-2-2-2-2-----------------|
E|-------------------------------------2-2-2-2-2-2-2-2-|


Repite los riffs las veces necesarias.
Comentarios, opiniones, lo que sea, bienvenido :)
Calificar esta versión:
Aviso: Este fichero es trabajo propio de su transcriptor y representa su interpretación personal de la canción. El material contenido en esta página es para exclusivo uso privado, por lo que se prohibe su reproducción o retransmisión, así como su uso para fines comerciales.
Más versiones de Bye Bye, Vilma Palma E Vampiros
Bye Bye
acordes
Bye Bye (ver 2)
acordes
Bye Bye
tablatura
Bye Bye (ver 2)
tablatura
Bye Bye
bajo
Bye Bye (ver 2)
bajo
Descubre más canciones de Vilma Palma E Vampiros