638, Viejas Locas (tablatura)

Autor: Anónimo | 28839 visualizaciones



Intro:

A#-A#-A#-C-A#-G x2
A#-A#-A#-C x3
A#-C-A#-C-A#-D-D-D-D-D-D

G
Tenia tantas ganas de volverte a ver
C
y en mi casa me dicen que llamaste recien
G
trate de buscar tu numero en la guia
C
pero tu apellido nunca entendi bien
D
y empece
C
y empece

y empece a pensar que tenia en un cajon
un viejo cuaderno que guardabas vos
en el anotabas todo lo que hacias
y habia un corazon que decia: mi amor
llamame al 638-0465

SOLO:

e|-----------------------------------------------------------
B|---------9------9------9------9------9---------------------
G|-10-8-10---8-10---8-10---8-10---8-10---8~--9-8-6-8-9-8-6---
D|---------------------------------------------------------8-
A|-----------------------------------------------------------
E|-----------------------------------------------------------

e/---999-888-666-444-014-|

e|---------------17-15-13-11-13-11-10-11-13-9-----------------------|
B|-4-2-4-5-4-2------------------------------------------------------|
G|-------------3-----------------------------------8----8-9-8-------|
D|---------------------------------------------------11-------11-8--|
A|------------------------------------------------------------------|
E|------------------------------------------------------------------|

A
y agarre el telefono y me puse a marcar
D
tenia tantas ganas de volverte a hablar
A
y cuando atendieron por vospregunte
D
y em dijeron que te fuiste hace mas de un mes
E
y pense
D
y pense

y pense que algun dia te voy a encontrar
y seguro que vamos a querer hablar
porque no vamos a dudar que hubo un gran amor
como me decia en ese corazon
llamameal 638-0465

porque no ...

Para mi el tema suena igualito
el punteo nose porque lo saque de transcripsiones anteriores
cualquier duda mandarme un mail matdanubio@hotmail.com

Me habia equivocado en la transcripcion anterior pero ahora lo
arregle





Calificar esta versión:
Aviso: Este fichero es trabajo propio de su transcriptor y representa su interpretación personal de la canción. El material contenido en esta página es para exclusivo uso privado, por lo que se prohibe su reproducción o retransmisión, así como su uso para fines comerciales.
Más versiones de 638, Viejas Locas
638
acordes
638
tablatura
638 (ver 2)
tablatura
638 (ver 3)
tablatura
638
bajo
Descubre más canciones de Viejas Locas