638, Viejas Locas (bajo)

Autor: Anónimo | 38567 visualizaciones



INTRO

G-------------------------------------------------------------------------
D-------------------------------------------------------------------------
A----------------------------------------------------------5-5-5-5-5-5-5--
E--6-6-8-6-3----6-6-8-6-3----6-6-8--6-6-8--6-6-8-6-8-6-8-6----------------


                 G           x4
----------------|----------||
----------------|----------||
-5-5-3-3-2-2----|----2-2-3-||
-------------5-5|--3-------||


      G      x3                  C          x2  G        x2 D
G------------||-----------------|-----------||-----------||----------------
D------------||-5-5-3-3-2-2-----|---2-3-5-3-||-----------||---7-7-5-5-4-4--
A----2-3-5-3-||-------------5-3-|-3---------||---2-3-5-3-||-5--------------
E--3---------||-----------------|-----------||-3---------||----------------

                G
---------------|-----------------------------------
---2-2-3-3-5-5-|-----------------------------------
-3-------------|---2-2-3-3-4-4-5-5-3-3-2-2---------
---------------|-3-------------------------5-3-----


EN EL SOLO HACE ESTO:
    A        x3                  D          x2 A         x2 E
G------------||-----------------|-----------||-----------||-----------------
D------------||-7-7-5-5-4-4-----|---4-5-7-5-||-----------||---9-9-7-7-6-6---
A----4-5-7-5-||-------------7-5-|-5---------||---4-5-7-5-||-7---------------
E--5---------||-----------------|-----------||-5---------||-----------------

                A                               B          x3
---------------|-------------------------------|-----------||------------------
---4-4-5-5-7-7-|-------------------------------|-----------||-9-9-7-7-6-6------
-5-------------|---4-4-5-5-6-6-7-7-5-5-4-4-----|---6-7-9-7-||-------------9-9--
---------------|-5-------------------------7-5-|-7---------||------------------

 E         x2 B         x2 F#
-----------||-----------||--------------------------------|-----------------------
---6-7-9-7-||-----------||---11-11-9-9-8-8----6-6-7-7-9-9-|-----------------------
-7---------||---6-7-9-7-||-9----------------7-------------|---6-6-7-7-8-8-9-9-7-7-
-----------||-7---------||--------------------------------|-7---------------------


-----------
-----------
-6-6-------
-----9-7---


FINAL:

G---------------------
D---------------------
A----4-5-6-7----------
E--5---------3-4-5----





Calificar esta versión:
Aviso: Este fichero es trabajo propio de su transcriptor y representa su interpretación personal de la canción. El material contenido en esta página es para exclusivo uso privado, por lo que se prohibe su reproducción o retransmisión, así como su uso para fines comerciales.
Más versiones de 638, Viejas Locas
638
acordes
638
tablatura
638 (ver 2)
tablatura
638 (ver 3)
tablatura
638
bajo
Descubre más canciones de Viejas Locas