With Or Without You, U2 (tablatura)

Autor: Anónimo | 18031 visualizaciones



Acordes: Re, La sus4, Sim 7, Sol

e|-10----------10----------|
B|-------10----------10----|
G|----------11----------11-|
D|---12----------12--------|

|-15/14-|-(14)-|-13-|-13-|-(14)-|-(14)-15-|-17-|-(17)-|-(17)-|-(17)-|

 See the stone set in your eyes, see the thorn twist in your side. I`ll wait 
e|-(17)-------|-(17)-----------|-(17)---------|-(17)------------|-(17)------|
 
 for you._                       Slight of hand and twist of fate,
e|-(17)-|-19-|-(19)(17)-|-1514-14------------|-(14)------------|
 
 on a bed of nails she makes me wait_ and I wait without you
e|-(14)-----------|-(15)---------15p|14---------|-(14)---|-------|
B|----------------|-----------------|-----------|--------|-10-12-|
 
 With or Without  You       With or Without You          Through the storm
e|---------------|------|-12-----------|-------14/|15-|15/14--------------|
B|-(12)----------|-10---|--------------|----------|---|-------------------|
 
 we reach the shore you have it all but I want more_ and I`m wait - in` for
e|-(14)------------|-(14)----------|-(14)-19-------|-17----------|-(17)----|
B|-----------------|---------------|---------------|-------------|-15------|
 
 you.   With or Without You, With or Without You oh ho_  I can`t live
e|-14-|-15-------------|-14-|-----------|-14----|-----|-(14)---------|

      With or Without You
e|----|----------|--------|---------|----|------|
B|-15-|----1514|12------|-(12)-10-|-15-|-(15)-|

Riff de coro:
                     And you      give   yourself away
e|-----10-----10--10----10--10----|---------------------|
B|--------8----------8---------7--|---------------------|
G|--------------------------------|-----------------0---|
D|--------------------------------|------0--------------|
(Continuar riff)
 
   And you give yourself away, and you give yourself away  and you give,
e|-1210--|-(10)-------------|-(10)--------|-------------|-12----------|
B|--------|-10---------------|-------------|-------------|-------------|

 and you give, and you give yourself away
e|-----------|--------|------------------|
B|-15--------|-(15)---|-(15)-------------|

With or Without you, With or Without you oh ho, I can live With or Without
You.
     Whoa,_                 whoa,                 whoa,
e|-------0---|-------0----|-------0-----|----3--|-14-14-14-14-14-14-14-|
B|-----3---3-|-----3--3---|-----3---3---|----3--|-15-15-15-15-15-15-15-|
G|---2-------|-0-2------2-|---2-------2-|-0--0--|-14-14-14-14-14-14-14-|
D|-0---------|------------|-------------|-------|----------------------|
A|-----------|------------|-2-----------|-------|----------------------|
                                  oh ho
e|-14-14-14-14-14-14-14-14-14-14-14-|-14-14-14-14-14-14-14-14-14-14-|
B|-15-15-15-15-15-15-15-15-15-15-15-|-15-15-15-15-15-15-15-15-15-15-|
G|-14-14-14-14-14-14-14-14-14-14-14-|-14-14-14-14-14-14-14-14-14-14-|

                             With or with out you
e|-15-15-15-15-15-14----|------------0----|---------0----|
B|-15-15-15-15-15-15-15-|---------3-----3-|------3-----3-|
G|-14-14-14-14-14-14-14-|-----2-----------|---2----------|

 With or Without You oh ho                I can`t live 
e|-----0----|-3-3-3-3-3-2---|-14-14-14-14-14-14-14-14-|
B|---3---3--|-3-3-3-3-3-3-3-|-15-15-15-15-15-15-15-15-|
G|-2--------|-2-2-2-2-2-2-2-|-14-14-14-14-14-14-14-14-|

                                        With or With-
e|-14-14-14-14-14-14-14-14-|-14-14-14-14-14-14-14-14-|
B|-15-15-15-15-15-15-15-15-|-15-15-15-15-15-15-15-15-|
G|-14-14-14-14-14-14-14-14-|-14-14-14-14-14-14-14-14-|

 out You                    with or with out you  
e|-15-15-15-15-15-14-------|------------|-2------|-(2)-|
B|-15-15-15-15-15-15-15----|------------|-3------|-(3)-|
G|-14-14-14-14-14-14-14----|------------|-2------|-(2)-|

                 Ooo
e|-(2)-|-(2)-|----17-|--17/19-|--19p18p17-|-(17)-|-(17)-|-19-17-19-|
B|-(3)-|-(3)-|-------|--------|-----------|------|------|----------|
G|-(2)-|-(2)-|-------|--------|-----------|------|------|----------|
             
e|-17-|-(17)-| 
                           Solo:         3X
e|---10---10---10-10-10-10-[----17-17----17-]-15-15-15-14-10-|
B|-8----8----8---8--8--8---[-15-------15----]----------------|
                                                          2X
e|----17-19p17h19-|----17-19p17h19-[-17-19p17h19--17-19p1719-]
B|-15-------------|-15-------------[-------------------------]





Comentarios del colaborador: Si, soy yo, matias (lo digo para los que me conocen) jaja

Calificar esta versión:
Aviso: Este fichero es trabajo propio de su transcriptor y representa su interpretación personal de la canción. El material contenido en esta página es para exclusivo uso privado, por lo que se prohibe su reproducción o retransmisión, así como su uso para fines comerciales.
Más versiones de With Or Without You, U2
With Or Without You
acordes
With Or Without You (ver 2)
acordes
With Or Without You (ver 3)
acordes
With Or Without You (ver 4)
acordes
With Or Without You
tablatura
With Or Without You (ver 2)
tablatura
With Or Without You
video guitarra
Descubre más canciones de U2