Combo Final, Tronic (tablatura) (ver 2)

Autor: Anónimo | 38675 visualizaciones



Bueno, aka les va la tablatura del 'Combo Final',
con punteo incluido, les aseguro k esta 100% buena ;)
y bueno, esta canción no la hubiera escuchado y sacado
gracias a mi amiga... Paula :p...

Intro:
e------------------------------------------------------
b------------------------------------------------------
g--7----------------7-----5----------------------------
d--7---7---9---5----7--7--5--5-------------------------
a--5---7---9---5----5--7--7--5-------------------------
e------5---7---3-------5-----3-------------------------

Versos: 'Anoche la vi pasar...'
e------------------------------------------------------
b------------------------------------------------------
g------7---------------7--5----------------------------
d---9--7--7--5------9--7--5--444-----------------------
a---9--5--7--5-(2x)-9--5--7--444-(PM)------------------
e---7-----5--3------7--------222-----------------------
Palm Mute...2X
(Luego de dos veces con PM, se hace 2 veces sin PM, ok???)

Coro: 'Nak Nak, kien toka la puerta...'
e------------------------------------------------------
b------------------------------------------------------
g--------7--9-------7--9-------------------------------
d---5----7--9--9----7--9-------------------------------
a---5----5--7--9----5--7-------------------------------
e---3----------7---------------------------------------
(Una vez)

Verso: 'No es facil ganar...'
e------------------------------------------------------
b------------------------------------------------------
g------7---------------7--5----------------------------
d---9--7--7--5------9--7--5--444-----------------------
a---9--5--7--5-(2x)-9--5--7--444-(PM)------------------
e---7-----5--3------7--------222-----------------------
 (Palm Mute...2X)
(Luego de dos veces con PM, se hace 2 veces sin PM, ok???)

Coro: 'Nak Nak, kien toka la puerta...'
e------------------------------------------------------
b------------------------------------------------------
g--------7--9-------7--9-------------------------------
d---5----7--9--9----7--9-------------------------------
a---5----5--7--9----5--7-------------------------------
e---3----------7---------------------------------------
(Dos veces)

Brigde: 'Si tengo k dejar, si tengo k olvidar...'
e-----------------------------------------------------------
b-----------------------------------------------------------
g---------7-------------7-----------------------------------
d---4--5--7--7----4--5--7--7--444---------------------------
a---4--5--5--7----4--5--5--7--444---------------------------
e---2--3-----5----2--3-----5--222---------------------------
  (Palm Mute)   (Sin Palm Mute) 

Solo:
e--------------------------------------------------
b--------------------------------------------------
g--7~~ 7-9-7-7-9-11-11-12-11-9-6-4/11-11-12-12-----
d--------------------------------------------------
a--------------------------------------------------
e--------------------------------------------------

Coro:... 'Nak Nak, kien toka la puerta'
e------------------------------------------------------
b------------------------------------------------------
g--------7--9-------7--9-------------------------------
d---5----7--9--9----7--9-------------------------------
a---5----5--7--9----5--7-------------------------------
e---3----------7---------------------------------------
(Tres veces)

Final: 'Lo siento, final!!!...'
e------------------------------------------
b------------------------------------------
g---7--9-----------------------------------
d---5--9-----------------------------------
a---5--7-----------------------------------
e------------------------------------------
(Dos veces)

Bueno eso es todo, no es dificíl de tokar, así k denle no más ;p...
Nos vemos... chauz!





Calificar esta versión:
Aviso: Este fichero es trabajo propio de su transcriptor y representa su interpretación personal de la canción. El material contenido en esta página es para exclusivo uso privado, por lo que se prohibe su reproducción o retransmisión, así como su uso para fines comerciales.
Más versiones de Combo Final, Tronic
Combo Final
acordes
Combo Final
tablatura
Combo Final (ver 2)
tablatura
Combo Final
bajo
Descubre más canciones de Tronic