Combo Final, Tronic (tablatura)

Autor: Anónimo | 43387 visualizaciones



Intro:
|--------------------------------|
|--------------------------------|
|--7-----------------7-----------|
|--7---7---9---12----7--7---9---5|
|--5---7---9---12----5--7---9---5|
|------5---7---10-------5---7---3|

Verso: Anoche la vi pasar...
(palm mute)
|-----------------|
|-----------------|
|-4---7-------9---|(x2)
|-4---7---7---9---|
|-2---5---7---7---|
|---------5-------|

su kara se transformo...
|----------------|
|----------------|
|-4---7-------9--|(x2)
|-4---7---7---9--|
|-2---5---7---7--|
|---------5------|

.. LA nariz..
(palm mute)
|----|
|----|
|-4--|
|-4--|
|-2--|
|----|

koro: nak nak...
|------------------------|
|------------------------|
|-----7-9-----------7-9--|
|-5---7-9---9--7----7-9--|
|-5---5-7---9--7----5-7--|
|-3---------7--5---------|

verso:
koro'2': nak nak..
|---------------------------|
|---------------------------|
|-----7-9-----------7-9-----|
|-5---7-9---9--7----7-9-9-7-|
|-5---5-7---9--7----5-7-9-7-|
|-3---------7--5--------7-5-|

..matar si yo no sabia...
|------------------------|
|------------------------|
|-----7-9-----------7-9--|
|-5---7-9---9--7----7-9--|
|-5---5-7---9--7----5-7--|
|-3---------7--5---------|

Si Tengo ke dejar..
(palm mute)
|----------------|
|----------------|
|-4---7-------9--|
|-4---7---7---9--|
|-2---5---7---7--|
|---------5------|

Si tengo ke arrankar..
|----------------|
|----------------|
|-4---7-------9--|
|-4---7---7---9--|
|-2---5---7---7--|
|---------5------|


solo:
|----------------------------------------------------------------------|
|----------------------------------------------------------------------|
|-7~-7-7--7-7-9~---11-11----12-11-7-4~----11-------11-------12---------|
|------------------------12------------------12-12----12-12----12-12-12|
|----------------------------------------------------------------------|
|----------------------------------------------------------------------|


koro'2': nak nak..
|---------------------------|
|---------------------------|
|-----7-9-----------7-9-----|
|-5---7-9---9--7----7-9-9-7-|(x2)
|-5---5-7---9--7----5-7-9-7-|
|-3---------7--5--------7-5-|


|---------------------------------|
|---------------------------------|
|-----7-9-----------7-9-----7-9---|
|-5---7-9---9--7----7-9-9-7-7-9--9|
|-5---5-7---9--7----5-7-9-7-5-7--9|
|-3---------7--5--------7-5------7|

fin!
sta buena la tab, en el koro donde aparecen tantas juntas eskuchen bien..se hace rapido!
konsultas A MI mail             [email protected]





Calificar esta versión:
Aviso: Este fichero es trabajo propio de su transcriptor y representa su interpretación personal de la canción. El material contenido en esta página es para exclusivo uso privado, por lo que se prohibe su reproducción o retransmisión, así como su uso para fines comerciales.
Más versiones de Combo Final, Tronic
Combo Final
acordes
Combo Final
tablatura
Combo Final (ver 2)
tablatura
Combo Final
bajo
Descubre más canciones de Tronic