El Zorro Y La Llama, Tremolo (tablatura)

Autor: dieguex k/f | 44506 visualizaciones



Explicacion de la Tabladura
(x)= ghost note (puedes obviar esta nota)
h=   hammer on
p=   pull-off
/=   slide up
\=   slide down
^=   bend full
b=   bend half
br^= bend´n Full
V~=  vibrato

primer intro:

se repite (2 veces)
E--------------------------------
B--9/10--------------------------
G-10/10--------------------------
D--------9/10--------------------
A-------11/12--------------------
E--------------------------------

sigue esto

E--------------5---------------------------------------
B--------5---------8--8p6p5-8-6-5----------------------
G--7-6-7---7-6---7----------------7-6--6-6-------------
D--7-----------------------------------0----99-7-5-3-2-
A----------------------------------------------------0-
E------------------------------------------------------

E-5-5--5-5/10-10-11-10-10-13-12---13--10--8--10-
B-----------------------------------------------
G---7----7/12-12-9--12-12----14-------12-10--12-
D-----------------------------------------------
A-----------------------------------------------
E-----------------------------------------------

E-10----------------10----------------------
B-10-10-13-10-13-13-10---10-10-13-13--------
G-12-10-12-10-12-12------10-10-12-12-12--10-
D------------------------------------12--10-
A-------------------------------------------
E-------------------------------------------

 se repite estas dos ultimas 2 veces
E-----------------------10-----10-----------
B-------10-10-----10-10-10-13--10--13-10-13-
G-10-12-10-10--12-10-10----12--12--12--9-12-
D-10-12--------12---------------------------
A-------------------------------------------
E-------------------------------------------

E-10-13-10----------10--------------------
B-10----10----------10-10--10-13-13-------
G-13-------10-13-13----10--10-12-12-------
D----------10-12-12-----------------12-10-
A-----------------------------------12-10-
E-----------------------------------------

2 intro (verdadero)
E------------------------------
B------------------------------
G------------------------------
D------------------------------
A----9----10----9----7---------
E-77---77----77----7---10-9-7v-

E------------------------------
B------------------------------
G------------------------------
D------------------------------
A----9----10----9--------------
E-77---77----77---77--5-2-5-7v-

la nota q valla con 5 son las notas q solo se toca las cuerdas de los bajos

Bm5   G5      A5     F#5
mar tierra lugares q ay
Bm5     G5        A5    F#5
dijo el zorro después de soñar

riff
E-14b-11-
B--------
G--------

Bm5             G5                A5       F#5
cuando llego la invitación de la llama al zorro
Bm5               G5              A5          F#5
q asistiera a la gran reunión q daría en el pueblo

E-----------------------------
B-----------------------------
G-----------------------------
D-----------------------------
A----9----10----9----7--------
E-77---77----77----7---10-9-7-

E-----------------------------
B-----------------------------
G-----------------------------
D-----------------------------
A----9----10----9-------------
E-77---77----77---77--5-2-5-7-

Bm5       G5         A5      F#5
llego la noche del gran reventón
Bm5              G5    A5      F#5
y el zorro a la cena se presento
riff
Bm5       G5         A5  F#5
llamas vicuñas delicias q ay
Bm5       G5       A5      F#5
dijo el zorro después de cenar

D5          A5       Bm5             G5 F#m5 G5 F#m5
santa pachamama el zorro le dio a la lla a ama a a
D5          A5       Bm5       G5 F#m5 G5 F#m5
casi se me escapa cuando se expre s a b a

D5          A5  Bm5         G5 F#m5 G5 F#m5
santa pachamama se comio a la l l a m a
D5          A5    Bm5        G5 F#m5 G5 F#m5
y a la puna wuia cuandó lo corre t e a ba

                  Ó
santa pachamama...... se repite en toda esa parte
E----0-2-0------------------
B--3-------3-2-0-2-3--------
G---------------------------
D---------------------4-5-4-
A---------------------------
E---------------------------

solo:
esta parte solo e improvisado por q es muy rapida

E----------------------15-15h17p15-13h15p13-12h13p12-10h13b-(13)--14-12-14-10-12-10-8-7--
B--------------8h10p8-------------------------------------------------------------------
G---------9-11--------------------------------------------------------------------------
D-9-11-12-------------------------------------------------------------------------------
A---------------------------------------------------------------------------------------
E---------------------------------------------------------------------------------------

E-17p15----18p15-15--17p15----18p15--
B-------17-----------------17--------
G------------------------------------
D------------------------------------
A------------------------------------
E------------------------------------

E-15p14----17p14---15p14----17-------
B-------15------15-------15----------
G------------------------------------
D------------------------------------
A------------------------------------
E------------------------------------

E-14p12-----16p12----14p12----16p12-1212121212-14141414-151515-17-
B-------14--------14-------14-------------------------------------
G-----------------------------------------------------------------
D-----------------------------------------------------------------
A-----------------------------------------------------------------
E-----------------------------------------------------------------

E-12-10-9-10-9----9----------------------------------------
B--------------12---12-10-12--12-10----10------------------
G-----------------------------------12----12-11-12-11-9-11v
D----------------------------------------------------------
A----------------------------------------------------------
E----------------------------------------------------------

E-----------------------
B-----------------------
G-4---------4^----------
D-4--7--5------7--5--4--
A-2--7--5------7--5--4--
E----5--3------5--3--2v-

E-----------------------------
B-----------------------------
G-4--------4^/16--------------
D-4--7--5---------7--5--4-----
A-2--7--5---------7--5--4-----
E----5--3---------5--3--2h4p2-

Bm5          G5      A5         F#5
a cadena perpetua pusieron al zorro
Bm5          G5     A5          F#5
muy buena sentencia dijo los muertos
Bm5               G5       A5        F#5
en el pueblo se velaba a todos los cuerpos
Bm5             G5       A5    F#5
y a cadena abierta se le sentencio.


D5          A5       Bm5             F#m5 G5 F#m5
santa pachamama el zorro le dio a la llaaamaaa
D5          A5       Bm5         F#m5 G5 F#m5
casi se me escapa cuando se expre s a b a

D5          A5  Bm5          F#m5 G5 F#m5
santa pachamama se comio a la l l a m a
D5          A5    Bm5         F#m5 G5 F#m5
y a la puna wuia cuandó lo corre t e a ba

                  Ó
santa pachamama...... se repite en toda esa parte
E----0-2-0------------------
B--3-------3-2-0-2-3--------
G---------------------------
D---------------------4-5-4-
A---------------------------
y  a la puna wuia ......

E---0-2-0-3-2-0v--------------------
B-3---------------------------------
G-----------------------------------
D-----------------4-5-4-------------
A-----------------------4-----------
E-----------------------------------

E-----------------------------
B-----------------------------
G-----------------------------
D-----------------------------
A----9----10----9----7--------
E-77---77----77---7---10-9-7-

E------------------------------
B------------------------------
G---------------------------4--
D---------------------------4--
A----9----10----9-----------2v-
E-77---77----77---7--5-2-5-----

SI TIENE DUDAS PETICIONES, RECLAMOS, MENTADAS DE MADRE, VIDA SOCIAL,ETC
 escribanme al msn [email protected] para pedidos etc..





Comentarios del colaborador: esta tab tbn te la dedico ati Blenda eres el amor de mi vida te amo mas k a nadie en este mundo..

Calificar esta versión:
Aviso: Este fichero es trabajo propio de su transcriptor y representa su interpretación personal de la canción. El material contenido en esta página es para exclusivo uso privado, por lo que se prohibe su reproducción o retransmisión, así como su uso para fines comerciales.
Más versiones de El Zorro Y La Llama, Tremolo
El Zorro Y La Llama
acordes
El Zorro Y La Llama
tablatura
Descubre más canciones de Tremolo