El Zorro Y La Llama, Tremolo (acordes)

Autor: Anónimo | 20577 visualizaciones

a5b5d5g5


Hola soy david tengo 18 años y aquí les va unos de mis tabs que saque  
de tremolo después les boy mandando mas ok 

INTRO    cuantas veces sea necesario 
E------------------------------------------------------------------------------------
B------------------------------------------------------------------------------------
G------------------------------------------------------------------------------------
D-------4-----5----4-----2-------------------4-----5----4-----1------------------
A--222---22---22---22----44--2------222---22---22---22------2-------------
E--------------------------------------------------------------------5---------------
Las notas del verso son:
Mar                 tierra          lugares   que         hay
         B5           G5                 A5                     F5#
E------------------------------------------------------------------------------------
B------------------------------------------------------------------------------------
G------------------------------------------------------------------------------------
D---999-99------555-55--------777-77----------444-44-----------------------
A---999-99------555-55--------777-77----------444-44-----------------------
E---777-77------333-33--------555-55----------222-22-----------------------
Así sucesivamente
 
Y de nuevo el intro:
El verso:
Y el coro es asi:

       Santa    pachamama   el zorro se comió a la llama
        D5                  A5           B5                         F5# G5 F5#
E------------------------------------------------------------------------------------
B------------------------------------------------------------------------------------
G----7-77--------------------------------------------------------------------------
D----7-77------------7-77------9-99------------------4---5--4------------------
A----5-55------------7-77------9-99------------------4---5--4------------------
E----------------------5-55------7-77------------------2---3--2------------------
Así es todo el coro ustedes le sacan los tiempos
Y después de esto viene el solo pero aun yo no jalo tanto jejeje eso es  de tarea para ustedes 
Después viene el verso otra ves 
Y el coro 
Y para finalizar el intro de nuevo.
Si alguuuieeeen saca el solo por favor no dudar en mandármelo a mi correo tontin370@latinmail.com
ok





Calificar esta versión:
Aviso: Este fichero es trabajo propio de su transcriptor y representa su interpretación personal de la canción. El material contenido en esta página es para exclusivo uso privado, por lo que se prohibe su reproducción o retransmisión, así como su uso para fines comerciales.
Más versiones de El Zorro Y La Llama, Tremolo
El Zorro Y La Llama
acordes
El Zorro Y La Llama
tablatura
Descubre más canciones de Tremolo