Ready Set Go, Tokio Hotel (tablatura)

Autor: javier_Dark | 29142 visualizaciones

|---------|------------|
|---------|------------|
|-4-----5-|-4-----5----|
|-2--4--5-|-2--4--5----|(3x)
|----2--3-|----2--3----|
|---------|------------|

VERSE:



|---------|------------|------------|------|
|---------|------------|------------|------|
|-2-----5-|-2-----5----|-4-----5----|------|
|-4--4--5-|-4--4--5----|-2--4--5----|-2--3-|
|----2--3-|----2--3----|----2--3----|-2--3-|
|---------|------------|------------|-2--3-|


|---------|------------|------------|------|
|---------|------------|------------|------|
|-2-----5-|-2-----5----|-4-----5----|------|
|-4--4--5-|-4--4--5----|-2--4--5----|-2--3-|
|----2--3-|----2--3----|----2--3----|-2--3-|
|---------|------------|------------|-2--3-|


|-----------|
|-----------|
|-----------|
|-3--5--2-2-|
|-3--5--2-2-|
|-3--5--2-2-| x2

CHORUS:

(Ready, Set, GO! It's time to run)
|------------|------------|-------------|---------|
|------------|------------|-------------|---------|
|-7--9--5----|-7--9--7--9-|-9-9--5-7--9-|-5--7--4-|
|-7--9--5--5-|-7--9--7--9-|-9-9--5-7--9-|-5--7--4-|
|-5--7--3--5-|-5--7--5--7-|-7-7--3-5--7-|-3--5--2-|
|----------5-|----------0-|-------------|---------|

PRE-VERSE:



|----------|
|-10--7--8-|
|-7---4--5-|
|----------|
|----------|
|----------| x2

VERSE:



|---------|------------|------------|------|
|---------|------------|------------|------|
|-4-----5-|-4-----5----|-4-----5----|------|
|-2--4--5-|-2--4--5----|-2--4--5----|-2--3-|
|----2--3-|----2--3----|----2--3----|-2--3-|
|---------|------------|------------|-2--3-|




|---------|------------|------------|------|
|---------|------------|------------|------|
|-4-----5-|-4-----5----|-4-----5----|------|
|-2--4--5-|-2--4--5----|-2--4--5----|-2--3-|
|----2--3-|----2--3----|----2--3----|-2--3-|
|---------|------------|------------|-2--3-|




|-----------|
|-----------|
|-----------|
|-3--5--2-2-|(softly)
|-3--5--2-2-|
|-3--5--2-2-| x2

CHORUS:

|------------|------------|-------------|---------|
|------------|------------|-------------|---------|
|-7--9--5----|-7--9--7--9-|-9-9--5-7--9-|-5--7--4-|
|-7--9--5--5-|-7--9--7--9-|-9-9--5-7--9-|-5--7--4-|
|-5--7--3--5-|-5--7--5--7-|-7-7--3-5--7-|-3--5--2-|
|----------5-|----------0-|-------------|---------|

Filler:

|--------------------------|
|--------------------------|
|--------------------------|
|-4-4--5-5--7-7--4-4-4-5-5-|
|-2-2--3-3--5-5--2-2-2-3-3-|
|--------------------------| (x6)



|-----------|
|-----------|
|-----------|(softly)
|-3--5--2-2-|
|-3--5--2-2-|
|-3--5--2-2-| (x3)

CHORUS:

|-------|------------|-------------|---------|
|-------|------------|-------------|---------|
|-7-7-7-|-7--9--7--9-|-9-9--5-7--9-|-5--7--4-|
|-7-7-7-|-7--9--7--9-|-9-9--5-7--9-|-5--7--4-|
|-5-5-5-|-5--7--5--7-|-7-7--3-5--7-|-3--5--2-|
|-------|----------0-|-------------|---------|

|------------|------------|-------------|---------|
|------------|------------|-------------|---------|
|-7--9--5----|-7--9--7--9-|-9-9--5-7--9-|-5--7--4-|
|-7--9--5--5-|-7--9--7--9-|-9-9--5-7--9-|-5--7--4-|
|-5--7--3--5-|-5--7--5--7-|-7-7--3-5--7-|-3--5--2-|
|----------5-|----------0-|-------------|---------|

|---------|------------|------------|
|---------|------------|------------|
|-4-----5-|-4-----5----|-4-----5----|
|-2--4--5-|-2--4--5----|-2--4--5----|
|----2--3-|----2--3----|----2--3----|
|---------|------------|------------|(6x)


final:

|---------------|
|-4-4--5-5--7-7-|
|-4-4--5-5--7-7-|
|-4-4--5-5--7-7-|
|-2-2--3-3--5-5-|
Calificar esta versión:
Aviso: Este fichero es trabajo propio de su transcriptor y representa su interpretación personal de la canción. El material contenido en esta página es para exclusivo uso privado, por lo que se prohibe su reproducción o retransmisión, así como su uso para fines comerciales.
Más versiones de Ready Set Go, Tokio Hotel
Ready Set Go
acordes
Ready Set Go (ver 2)
acordes
Ready Set Go
tablatura
Descubre más canciones de Tokio Hotel