Ready Set Go, Tokio Hotel (acordes) (ver 2)

Autor: jin lee | 24752 visualizaciones

bmcdemg
bueno mi intro se acerca al sonido,aunque ya no esta tanto de moda igual es chevre

e--------------------------------------------------
b--------------------------------------------------
g-1-1-1--------------------1-1-1-------------------
d-------3-3-3--------------------3-3-3-------------
a-------------2-2-2-2-2-2--------------2-2-2-4-4-4-
e--------------------------------------------------
Estrofa
e--------------------------------------------------
b--------------------------------------------------
g-1-1-1--------------------1-1-1-------------------
d-------3-3-3--------------------3-3-3-------------
a-------------2-2-2-2-2-2--------------2-2-2-4-4-4-
e--------------------------------------------------

e--------------------------------------------------
b--------------------------------------------------
g-1-1-1--------------------------------------------
d-------3-3-3--------------------------------------
a-------------2-2-2-2-2-2-----5-5-5-2-2-3-3-3-3-3-3
e--------------------------------------------------

e--------------------------------------------------
b--------------------------------------------------
g-1-1-1--------------------1-1-1-------------------
d-------3-3-3--------------------3-3-3-------------
a-------------2-2-2-2-2-2--------------2-2-2-4-4-4-
e--------------------------------------------------

e--------------------------------------------------
b--------------------------------------------------
g-1-1-1--------------------------------------------
d-------3-3-3--------------------------------------
a-------------2-2-2-2-2-2-----5-5-5-2-2-3-3-3-3-3-3
e--------------------------------------------------

Coro
D          Em  
Ready, set, go!  
     C       G     
It's time to run  
    D      Em        C      G  
The sky is changing, we are one  
  Em     C      D    
Together we can make it  
          Em       C        D  
While the world is crashin' down  
Bm  
Don't you turn around  

e--------------------------------------------------
b--------------------------------------------------
g-1-1-1--------------------1-1-1-------------------
d-------3-3-3--------------------3-3-3-------------
a-------------2-2-2-2-2-2--------------2-2-2-4-4-4-
e--------------------------------------------------
Y luego se repite lo mismo
Calificar esta versión:
Aviso: Este fichero es trabajo propio de su transcriptor y representa su interpretación personal de la canción. El material contenido en esta página es para exclusivo uso privado, por lo que se prohibe su reproducción o retransmisión, así como su uso para fines comerciales.
Más versiones de Ready Set Go, Tokio Hotel
Ready Set Go
acordes
Ready Set Go (ver 2)
acordes
Ready Set Go
tablatura
Descubre más canciones de Tokio Hotel