Final Day, Tokio Hotel (tablatura) (ver 2)

Autor: xxlukexx | 22355 visualizaciones

Intro 
E|------------------------------------|
B|------------------------------------|
G|------------------------------------|
D|---3--3----4444444------------------|    6x
A|--3--3-3-2-4444444------------------|
E|-1--1------2222222------------------|

Bridge
E|-----------------------------------|
B|-----------------------------------|
G|-3333-333-6-66-666-3333-33-66-6-6--|
D|-3333-333-6-66-666-3333-33-66-6-6--|
A|-1111-111-4-44-444-1111-11-44-4-4--|
E|-----------------------------------|

Chorus
E|---------------------|
B|---------------------|
G|------6666-----------|
D|-3333-6666-666-6-666-|       x2
A|-3333-4444-666-6-666-|
E|-1111------444-3-333-|

E|---------------------|
B|---------------------|
G|-5555-6666-----------|
D|-5555-6666-666-6-666-|
A|-3333-4444-666-6-666-|
E|-----------444-3-333-|

E|-----------------------------------|
B|-----------------------------------|
G|-33333333-666666/10-33333333-66666-|
D|-33333333-666666/10-33333333-66666-|
A|-11111111-444444/8--11111111-44444-|
E|-----------------------------------|

Verse
E|------------------------------------|
B|------------------------------------|
G|------------------------------------|
D|---3--3----4444444------------------|    4x
A|--3--3-3-2-4444444------------------|
E|-1--1------2222222------------------|


Bridge
E|-----------------------------------|
B|-----------------------------------|
G|-3333-333-6-66-666-3333-33-66-6-6--|
D|-3333-333-6-66-666-3333-33-66-6-6--|
A|-1111-111-4-44-444-1111-11-44-4-4--|
E|-----------------------------------|

Chorus
E|---------------------|
B|---------------------|
G|------6666-----------|
D|-3333-6666-666-6-666-|       x2
A|-3333-4444-666-6-666-|
E|-1111------444-3-333-|

E|---------------------|
B|---------------------|
G|-5555-6666-----------|
D|-5555-6666-666-6-666-|
A|-3333-4444-666-6-666-|
E|-----------444-3-333-|

E|-----------------------------------|
B|-----------------------------------|
G|-33333333-666666/10-33333333-66666-|
D|-33333333-666666/10-33333333-66666-|
A|-11111111-444444/8--11111111-44444-|
E|-----------------------------------|

E|---------------------|
B|---------------------|
G|------6-66-----------|
D|-3-33-6-66-6-6-6-666-|       x4
A|-3-33-4-44-6-6-6-666-|
E|-1-11------4-4-3-333-|

E|-----------------------------------------------------|
B|-5-55-6-66-8-8-8-888-5-55-6-66-5-5-3-333-------------|
G|-5-55-6-66-8-8-8-888-5-55-6-66-5-5-3-333-------------|
D|-3-33-4-44-6-6-6-666-3-33-4-44-3-3-1-111-------------|
A|-----------------------------------------------------|
E|-----------------------------------------------------|

Bridge
E|-----------------------------------|
B|-----------------------------------|
G|-3333-333-6-66-666-3333-33-66-6-6--|
D|-3333-333-6-66-666-3333-33-66-6-6--|
A|-1111-111-4-44-444-1111-11-44-4-4--|
E|-----------------------------------|

Chorus
E|---------------------|
B|---------------------|
G|------6666-----------|
D|-3333-6666-666-6-666-|       x2
A|-3333-4444-666-6-666-|
E|-1111------444-3-333-|

E|---------------------|
B|---------------------|
G|-5555-6666-----------|
D|-5555-6666-666-6-666-|
A|-3333-4444-666-6-666-|
E|-----------444-3-333-|

E|-----------------------------------|
B|-----------------------------------|
G|-33333333-666666/10-33333333-66666-|
D|-33333333-666666/10-33333333-66666-|
A|-11111111-444444/8--11111111-44444-|
E|-----------------------------------|

E|-----------------------------------------------------|
B|-5-55-6-66-8-8-8-888-5-55-6-66-5-5-3-333-------------|
G|-5-55-6-66-8-8-8-888-5-55-6-66-5-5-3-333-------------|
D|-3-33-4-44-6-6-6-666-3-33-4-44-3-3-1-111-------------|
A|-----------------------------------------------------|
E|-----------------------------------------------------|


E|---------------------|
B|-5-55-6-66-8-8-8-888-|
G|-5-55-6-66-8-8-8-888-|
D|-3-33-4-44-6-6-6-666-|
A|---------------------|
E|---------------------|

E|--------------------------------------|
B|--------------------------------------|
G|-33333333-66666666-333333333-66-6-6---|
D|-33333333-66666666-333333333-66-6-6-3~|
A|-11111111-44444444-111111111-44-4-4-3~|
E|------------------------------------1~|

Comentarios del colaborador: LA CANCION PARECE DIFICIL PERO NO LO ES ESPERO KE LES GUSTE...

Calificar esta versión:
Aviso: Este fichero es trabajo propio de su transcriptor y representa su interpretación personal de la canción. El material contenido en esta página es para exclusivo uso privado, por lo que se prohibe su reproducción o retransmisión, así como su uso para fines comerciales.
Más versiones de Final Day, Tokio Hotel
Final Day
tablatura
Final Day (ver 2)
tablatura
Descubre más canciones de Tokio Hotel