Final Day, Tokio Hotel (tablatura)

Autor: Misterio-k825 | 14461 visualizaciones

----------------------------------
----------------------------------
----------------------------------
--3-----3-----3------4-4-4-4-4-4-4  x 6
-3----3-----3---2-1--4-4-4-4-4-4-4
----1-----1----------2-2-2-2-2-2-2

--------------------------------
--------------------------------
-3-x-x-3-x-x-3-x-6-x-x-6-x-x-6-x
-3-x-x-1-x-x-3-x-6-x-x-6-x-x-6-x Repetir
-1-x-x-1-x-x-1-x-4-x-x-4-x-x-4-x
--------------------------------

------------------
------------------
-----6-6----------
-3-3-6-6-6-6-6-6-6 x3
-3-3-4-4-6-6-6-6-6
-1-1-----4-4-3-3-3

---------------------------------
---------------------------------
-3-3-3-3-3-3-3-3-6-6-6-6-6-6-6-6-
-3-3-3-3-3-3-3-3-6-6-6-6-6-6-6-6- Repetir
-1-1-1-1-1-1-1-1-4-4-4-4-4-4-4-4-
---------------------------------


----------------------------------
----------------------------------
----------------------------------
--3-----3-----3------4-4-4-4-4-4-4  x 4
-3----3-----3---2-1--4-4-4-4-4-4-4
----1-----1----------2-2-2-2-2-2-2


--------------------------------
--------------------------------
-3-x-x-3-x-x-3-x-6-x-x-6-x-x-6-x
-3-x-x-1-x-x-3-x-6-x-x-6-x-x-6-x Repetir
-1-x-x-1-x-x-1-x-4-x-x-4-x-x-4-x
--------------------------------


------------------
------------------
-----6-6----------
-3-3-6-6-6-6-6-6-6 x3
-3-3-4-4-6-6-6-6-6
-1-1-----4-4-3-3-3



---------------------------------
---------------------------------
-3-3-3-3-3-3-3-3-6-6-6-6-6-6-6-6-
-3-3-3-3-3-3-3-3-6-6-6-6-6-6-6-6- Repetir
-1-1-1-1-1-1-1-1-4-4-4-4-4-4-4-4-
---------------------------------


------------------
------------------
-----6-6----------
-3-3-6-6-6-6-6-6-6 x3
-3-3-4-4-6-6-6-6-6
-1-1-----4-4-3-3-3


-------------------------------------------------
-------------------------------------------------
-------------------------------------------------
-10-10-10-10-11-11-11-11-13-13-13-13-13-13-13-13-
-10-10-10-10-11-11-11-11-13-13-13-13-13-13-13-13-
-8--8--8--8--9--9--9--9--11-11-11-11-11-11-11-11-


-----------------------------------------------
-----------------------------------------------
-----------------------------------------------
-10-10-10-10-11-11-11-11-10-10-10-10-8-8-8-8-8-
-10-10-10-10-11-11-11-11-10-10-10-10-8-8-8-8-8-
-8--8--8--8--9--9--9--9--8--8--8--8--6-6-6-6-6-


--------------------------------
--------------------------------
-3-x-x-3-x-x-3-x-6-x-x-6-x-x-6-x
-3-x-x-1-x-x-3-x-6-x-x-6-x-x-6-x Repetir
-1-x-x-1-x-x-1-x-4-x-x-4-x-x-4-x
--------------------------------


------------------
------------------
-----6-6----------
-3-3-6-6-6-6-6-6-6 x3
-3-3-4-4-6-6-6-6-6
-1-1-----4-4-3-3-3


-------------------------------------------------
-------------------------------------------------
-------------------------------------------------
-10-10-10-10-11-11-11-11-13-13-13-13-13-13-13-13-
-10-10-10-10-11-11-11-11-13-13-13-13-13-13-13-13-
-8--8--8--8--9--9--9--9--11-11-11-11-11-11-11-11-


------------------
------------------
-----6-6----------
-3-3-6-6-6-6-6-6-6 x3
-3-3-4-4-6-6-6-6-6
-1-1-----4-4-3-3-3



--------------------------------
--------------------------------
-3-x-x-3-x-x-3-x-6-x-x-6-x-x-6-x
-3-x-x-1-x-x-3-x-6-x-x-6-x-x-6-x Repetir
-1-x-x-1-x-x-1-x-4-x-x-4-x-x-4-x
--------------------------------



-------------------------------------------------
-------------------------------------------------
-------------------------------------------------
-10-10-10-10-11-11-11-11-13-13-13-13-13-13-13-13-
-10-10-10-10-11-11-11-11-13-13-13-13-13-13-13-13-
-8--8--8--8--9--9--9--9--11-11-11-11-11-11-11-11-


-----------------------------------------------
-----------------------------------------------
-----------------------------------------------
-10-10-10-10-11-11-11-11-10-10-10-10-8-8-8-8-8-
-10-10-10-10-11-11-11-11-10-10-10-10-8-8-8-8-8-
-8--8--8--8--9--9--9--9--8--8--8--8--6-6-6-6-6-


-------------------------------------------------
-------------------------------------------------
-------------------------------------------------
-10-10-10-10-11-11-11-11-13-13-13-13-13-13-13-13-
-10-10-10-10-11-11-11-11-13-13-13-13-13-13-13-13-
-8--8--8--8--9--9--9--9--11-11-11-11-11-11-11-11-


--------------------------------
--------------------------------
-3-x-x-3-x-x-3-x-6-x-x-6-x-x-6-x
-3-x-x-1-x-x-3-x-6-x-x-6-x-x-6-x 
-1-x-x-1-x-x-1-x-4-x-x-4-x-x-4-x
--------------------------------

--------------------------------------------------
--------------------------------------------------
-3-x-x-3-x-x-3-x-6-x-x-6-x-x-6-6-6-6-6-6-6-6-6----
-3-x-x-1-x-x-3-x-6-x-x-6-x-x-6-6-6-6-6-6-6-6-6--3-
-1-x-x-1-x-x-1-x-4-x-x-4-x-x-4-4-4-4-4-4-4-4-4--3-
------------------------------------------------1-

Calificar esta versión:
Aviso: Este fichero es trabajo propio de su transcriptor y representa su interpretación personal de la canción. El material contenido en esta página es para exclusivo uso privado, por lo que se prohibe su reproducción o retransmisión, así como su uso para fines comerciales.
Más versiones de Final Day, Tokio Hotel
Final Day
tablatura
Final Day (ver 2)
tablatura
Descubre más canciones de Tokio Hotel