My Generation, The Who (tablatura)

Autor: cthz0811 | 30257 visualizaciones



Intro:

  G            F             G          F
|------------------------------------------------|
|------------------------------------------------|
|------------------------------------------------|
|-0--0--0--0--0--0--0--0--0--0--0--0--0--0--0--0-|
|-2--2--2--2--3--3--3--3--2--2--2--2--3--3--3--3-|
|-3--3--3--3--1--1--1--1--3--3--3--3--1--1--1--1-|


Verso 1 y 2:

  G             F           
|------------------------------------|
|------------------------------------|
|------------------------------------|
|------------------------------------|
|-2------------2--2--3--3--3--3------|
|-3------------3--3--1--1--1--1------|


Verso uno
G					      F
People try to put us d-down [talkin' 'bout my generation]
G					     F
Just because we get around [talkin' 'bout my generation]
G					 	     F
Things they do look awful c-c-cold [talkin' 'bout my generation]
G					      F
Hope I die before I get old [talkin' 'bout my generation]


Coro:

This is my generation, this is my generation baby

  G        F            G           F          G
|-------------------------------------------------|
|-------------------------------------------------|
|-------------------------------------------------|
|-0--0--0--0--0--0--0---0--0--0--0--0--0--0--0--0-|
|-2--2--2--3--3--3--3---2--2--2--2--3--3--3--3--2-|
|-3--3--3--1--1--1--1---3--3--3--3--1--1--1--1--3-|


Verso Dos
G					        F 
Why don't you all f-fade away [talkin' 'bout my generation]
G					                   F 
And don't try to dig what we all s-s-say [talkin' 'bout my generation]
G					 	              F
I'm not trying to cause a big s-s-sensation [talkin' 'bout my generation]
G					                     F
I'm just talkin' 'bout my g-g-g-generation [talkin' 'bout my generation]


Coro:

This is my generation, this is my generation baby

  G        F            G           F          G
|-------------------------------------------------|
|-------------------------------------------------|
|-------------------------------------------------|
|-0--0--0--0--0--0--0---0--0--0--0--0--0--0--0--0-|
|-2--2--2--3--3--3--3---2--2--2--2--3--3--3--3--2-|
|-3--3--3--1--1--1--1---3--3--3--3--1--1--1--1--3-|


Al final de cada verso del solo de bajo.la guitarra toca esto:

Verso de solo de bajo 1

  G           F           G
|----------------------------|
|----------------------------|
|-0--0--0--0--------------0--|
|-0--0--0--0--3--3--3--3--0--|
|-2--2--2--2--3--3--3--3--2--|
|-3--3--3--3--1--1--1--1--3--|


Verso de solo de bajo 2

  G           F           G
|----------------------------|
|----------------------------|
|-0--0--0--0--------------0--|
|-0--0--0--0--3--3--3--3--0--|
|-2--2--2--2--3--3--3--3--2--|
|-3--3--3--3--1--1--1--1--3--|


Verso de solo de bajo 3

  G           F           G
|----------------------------|
|----------------------------|
|-0--0--0--0--------------0--|
|-0--0--0--0--3--3--3--3--0--|
|-2--2--2--2--3--3--3--3--2--|
|-3--3--3--3--1--1--1--1--3--|



Verso de solo de bajo 4


|---3-6---6----------------------------------------------------------3--------------------|
|--3-----------3-----------------------------3--6-------3--6------------------6-----------|
|-3--------------5b7--5p3-----------3-3-5b7--------5b7----------5b7------5b7-----4----/6--|
|-------------------------5-3-5------5---------------------------------------------5--/7--|
|-----------------------------------------------------------------------------------------|
|-----------------------------------------------------------------------------------------|


Verso 3:

  A             G           
|----------------------------|
|----------------------------|
|----------------------------|
|----------------------------|
|-7-------------5--5--5--5---|
|-5-------------3--3--3--3---|


Verso tres
 A                                G
Why don't you all f-fade away (Talkin' 'bout my generation)
 A                                           G
And don't try to d-dig what we all s-s-say (Talkin' 'bout my generation)
A                                                G
I'm not trying to cause a b-big s-s-sensation (Talkin' 'bout my generation)
 A                                         G
I'm just talkin' 'bout my g-g-generation (Talkin' 'bout my generation)


Coro:

 This is my generation, this is my generation baby
   
|------------------------------------------------------------|
|-5--5--5-5-5---5--5--5----5--5-5-5-5--5--5--5----5--5-5-5-5-|
|-6--7--7-7-7---6--6--6h7--7--7-7-7-7--6--6--6h7--7--7-7-7-7-|
|--------------------------------------7---------------------|
|------------------------------------------------------------|
|------------------------------------------------------------|

  myyyyy gennneeeraaaatioooonnnn...

  A#          G#           A#          G#
|----------------------------------------------------|
|----------------------------------------------------|
|----------------------------------------------------|
|-8--8--8--8--6--6--6--6--8--8--8--8--6--6--6--6---8-|
|-8--8--8--8--6--6--6--6--8--8--8--8--6--6--6--6---8-|
|-6--6--6--6--4--4--4--4--6--6--6--6--4--4--4--4---6-|


Verso 4:

 A#             G#        
|---------------------------|
|---------------------------|
|---------------------------|
|-8------------6--6--6--6---|
|-8------------6--6--6--6---|
|-6------------6--4--4--4---|


Verso cuatro 

A#				 G#
People try to put us d-down [talkin' 'bout my generation]
A#				G#
Just because we get around [talkin' 'bout my generation]
A#					G#
Things they do look awful c-c-cold [talkin' 'bout my generation]
A#				G#
Hope I die before I get old [talkin' 'bout my generation]



Coro:

This is my generation, this is my generation baby  myyyyy gennneeeraaaatioooonnnn...

|------------------------------------------------------------|
|-6--6--6-6-6---6--6--6----6--6-6-6-6--6--6--6----6--6-6-6-6-|
|-7--8--8-8-8---7--7--7h8--8--8-8-8-8--7--7--7h8--8--8-8-8-8-|
|--------------------------------------8---------------------|
|------------------------------------------------------------|
|------------------------------------------------------------|

Solo de guitarra (a veces Townshend lo improvisa:

|-----------------------------------------------------------------------------------------|
|-------6-----------6-----6-----5-----6-----5---------3-------6-6-----5-5-6----5---5-5-6--|
|-5-----5-----5-----5-----5-----5-----5-----5-----------5-----5-5-5---5-5-5----5---5-5-5--|
|-5-----5-----5-----5-----5-----5-----5-----5-----3h5---5-----5-5-5---5-5-5----5---5-5-5--|
|-3-----------3-----------3-----3-----3-----3-----------3---------3-----------------------|
|-----------------------------------------------------------------------------------------|

|--------------------------------------------------------------------------------------------------0--|
|-6--5------6--5------6--5-------6--5--------------------------------------------------------------1--|
|-5--5------5--5------5--5-------5--5--------------------------------------------------------------0--|
|-5--5------5--5------5--5-------5--5--------------------(Drum.Solo)-------------------------------2--|
|--------------------------------------------------------------------------------------------------3--|
|-----------------------------------------------------------------------------------------------------|





Calificar esta versión:
Aviso: Este fichero es trabajo propio de su transcriptor y representa su interpretación personal de la canción. El material contenido en esta página es para exclusivo uso privado, por lo que se prohibe su reproducción o retransmisión, así como su uso para fines comerciales.
Más versiones de My Generation, The Who
My Generation
acordes
My Generation
tablatura
My Generation
bajo
Descubre más canciones de The Who