My Generation, The Who (bajo)

Autor: xxblackxpinkxx | 23746 visualizaciones



"My Generation", de The Who
_____________________________________________
·Por Sebastián Ara.
·Buenos Aires, Argentina, 2009
·Email MSN por cualquier duda: playing.the.angel_@hotmail.com
______________________________________________
*Afinación: EADG
*Dificultad: Intermedia/Avanzada
*Género: Rock

Referencias:
x Nota muda
h Hammer On, Martillar
p Pull Off, Soltar
/ Slide, Deslizar


Intro:
G/-x------------------------|
D/?x-5--5--5--5--3--3--3--3-|
A/-x------------------------|
E/-x------------------------|

Entre versos
G/------------------------|
D/-5--5--5?5--3~~-3-3-3-3-|
A/------------------------|
E/------------------------|

Entreversos
G/-------------------------|
D/-5--5--5--5--3--3--3--3--|
A/-------------------------|
E/-------------------------|

Versos 1 y 3
G/--------------------------------|
D/-3-5-5-5-2h3-5--5-5-3-3-3-3-5-5-|
A/--------------------------------|
E/--------------------------------|

Verse 2
G/-------------------------------|
D/-3-5-5-5-3-5-5-5-3~~~3-3-3-5-5-|
A/-------------------------------|
E/-------------------------------|

Verso 4
G/-------------------------------|
D/-3-5-5-5-3-5-5-5-3-3-3-3-3-5-5-|
A/-------------------------------|
E/-------------------------------|

Coros 1:
G/-------------------------------|
D/-5--5--5-5-5-5--3-3-3-3~~3-3-3-|
A/-------------------------------|
E/-------------------------------|

Coros 2:
G/-------------------------------|
D/-5--5--5-5-5-5--3-3-3-3~~3-3---|
A/-------------------------------|
E/-------------------------------|

Entremedio
G/--------------------------|
D/-5--5--5--5--3--3--3--3?5-|
A/--------------------------|
E/--------------------------|



SOLO DE BAJO:
G/-----5h7?5(5)h3----3-----------|
D/--5-------------5----5h3-3-----|
A/-------------------------5?--5-|
E/-------------------------------|

G/----------------------------|
D/--5?5h3---------------3--4--|
A/-------5h3--1-----13h5------|
E/---------------3------------|

G/-----5h7?5h3-3-3-----------------|
D/--5---------------5h3-3----------|
A/---------------------5-5h3?-1----|
E/-------------------------------3-|

G/---------------------------------3----|
D/--5?-555-3--333---------------5----5--|
A/---------------3-333-1--1-------------|
E/----------------------------3---------|



Ahora sube un tono completo la canción (de G a A):

Versos:
G/--------------------------|
D/-7--7--7--7--5--5--5--5?7-|
A/--------------------------|
E/--------------------------|

Versos siguientes:
G/-----------------------------|
D/-7--7--7--7--5--5--5-5-5-5?7-|
A/-----------------------------|
E/-----------------------------|

3:
G-----------------------------|
D-7777777777--5--5--5-5-5-5?7-|
A-----------------------------|
E-----------------------------|

4:
G---------------------------|
D-7777777777--5555555555555-|
A---------------------------|
E---------------------------|


Ahora sube un semitono (de A a Bb):

Versos:
G----------------------------|
D-8--8?-8-8-8-8--6-6-6-6--66-|
A----------------------------|
E----------------------------|

Final:
G---------------------------|
D-8--8?-8--8--8--6--6--6--6-|
A---------------------------|
E---------------------------|

Terminación alocada:
G----------------------------------|
D-6666666666-7-7-7-8-8-8-8-8-8-8-8-|
A----------------------------------|
E----------------------------------|

G------------------------------|
D-6-6-6-6~~~6-6-6--8--8--8--8--|
A------------------------------|
E------------------------------|

G---------------------------|
D-6--666666-8-8-8-8-8-8-8-8-|
A---------------------------|
E---------------------------|

G---------------------------------|
D-6-6-6-6-6-6-6-6-8-8-8-8-8-8-8-8-|
A---------------------------------|
E---------------------------------|

G---------------------------
D-6-6-6-6-6-6-8-8---10------
A---------------------------
E-----------------------3...





Calificar esta versión:
Aviso: Este fichero es trabajo propio de su transcriptor y representa su interpretación personal de la canción. El material contenido en esta página es para exclusivo uso privado, por lo que se prohibe su reproducción o retransmisión, así como su uso para fines comerciales.
Más versiones de My Generation, The Who
My Generation
acordes
My Generation
tablatura
My Generation
bajo
Descubre más canciones de The Who