Untouched, The Veronicas (tablatura) (ver 2)

Autor: ozmos_roses | 37059 visualizaciones



esta es una copia de las rolas qe me envian desde estados unidos
para mas info:[email protected]
standard
guitar
intro/bridge
e----------------------|
b----------------------|
g-7~---11~---9~---7~---| you can either strum it once and let it ring or keep strumming
d-7~---11~---9~---7~---| till it switches chords
a-5~----9~---7~---5~---|
e----------------------|

verses/chorus
palm mute, they really try to overemphasize the sound of the keyboard in this song, imo
e-------------------------------------|
b-------------------------------------|
g-------------------99999999-77777777-|
d-99999999-77777777-99999999-77777777-|
a-99999999-77777777-77777777-55555555-|
e-77777777-55555555-------------------|

outro
e--------------------    ---------------------------------------------|
b---- do this 2x -------    ----------------then this-----------------|
g--------------------    ---------------------------------------------|
d------7---6---7-7-6-    ---------------------------------------------|
a--------------------    ---------------------------------------------|
e-5555---5---5-------    ---77777-77-7-9-9-7--55555-55-5-7-7-5--------|

keyboard (just my interpretation.  might not be dead on but it kinda sounds like it and 
fun to play.  lol)

lead through song
e---------------------------|
b---------9---10---9---10-9-|
g-9h11--9---9----9---9------|
d---------------------------|
a---------------------------|
e---------------------------|

chorus
e------------------------------------------------------|
b------------------------------------------------------|
g------------------------------------------------------|
d---7-6-7-7-6---7-6-7-7-6------------------------------|
a-0-----------0----------------------------------------|
e--------------------------7--7-7-9-9-7---5--5-5-7-7-5-|

chorus after bridge (this is kinda hard to tab) 2 ways to do it.
easy way
e------------------------------------------------------------------------|
b------------------------------------------------------------------------|
g------------------------------------------------------------------------|
d------------------------------------------------------0-0-0-0-0-0-4-2-0-|
a-2-2-2-2-2-2-2-4-2------------------------------------------------------|
e-------------------2-2-2-2-2-2-2-4-2--0-0-0-0-0-0-4-2-0-----------------|

other way (kinda harder but i do it this way)
e---------------------------------------------------------------------------|
b---------------------------------------------------------------------------|
g---------------------------------------------------------------------------|
d---------------------------------------------------------0-0-0-0-0-0-4p2p0-|
a-2-2-2-2-2-2-2h4p2p0-------------------------------------------------------|
e----------------------------------2-2-2-2-2-2-2h4p2p0-0-0-0-0-0-0-4p2p0--------------------------------|





Calificar esta versión:
Aviso: Este fichero es trabajo propio de su transcriptor y representa su interpretación personal de la canción. El material contenido en esta página es para exclusivo uso privado, por lo que se prohibe su reproducción o retransmisión, así como su uso para fines comerciales.
Más versiones de Untouched, The Veronicas
Untouched
acordes
Untouched (ver 2)
acordes
Untouched
tablatura
Untouched (ver 2)
tablatura
Untouched
bajo
Descubre más canciones de The Veronicas