Untouched, The Veronicas (bajo)

Autor: ozmos_roses | 24733 visualizaciones



esta es otra pero en bvajo tambien enviada desde estados unidos
para mas info:[email protected]
INTRO unteched

G|---------------------|
D|---------------------|
A|---------------------|
E|---------------------|

G|---------------------|
D|---------------------|
A|-5--------------5----|
E|------2----0---------|

G|---------------------------------|
D|---------------------------------|
A|-5(X16)------------------5(X16)--|
E|---------2(X16)--0(X16)----------|

VERSE

G|-----------------------------------|
D|-----------------------------------|
A|-2(X16)--0(X16)----------5(X16)----|
E|-----------------0(X16)------------|

G|-----------------------------------|
D|-----------------------------------|
A|-2(X16)--0(X16)----------5(X16)----|
E|-----------------0(X16)------------|

G|-----------------------------------|
D|-----------------------------------|
A|-5(X16)-----------------5-55-55-55-|
E|---------2(X16)--0(X16)------------|

CHORUS

G|---------14----13----14--14--13-|---------14----13----14--14--13-|
D|-0-0-0-0-----0-----0------------|--------------------------------|
A|--------------------------------|-0-0-0-0-----0-----0------------|
E|--------------------------------|--------------------------------|

G|---------4----4----6--6--4-|---------2----1----4--4--2-|
D|------------2--------------|-0-0-0-0----0----0---------|
A|-----------------7---------|---------------------------|
E|-0-0-0-0-------------------|---------------------------|

G|---------14----13----14--14--13-|---------14----13----14--14--13-|
D|-0-0-0-0-----0-----0------------|--------------------------------|
A|--------------------------------|-0-0-0-0-----0-----0------------|
E|--------------------------------|--------------------------------|

G|---------4----4----6--6--4-|---------2----1----4--4--2-|
D|------------2--------------|-0-0-0-0----0----0---------|
A|-----------------7---------|---------------------------|
E|-0-0-0-0-------------------|---------------------------|

POST-CHORUS

G|---------------------|
D|---------------------|
A|---------------------|
E|---------------------|

G|---------------------|
D|---------------------|
A|------------5--------| (THIS PART IS WHEN THEY SAY UNTOUCHED)
E|------0--------------|

VERSE

G|-----------------------------------|
D|-----------------------------------|
A|-2(X16)--0(X16)----------5(X16)----|
E|-----------------0(X16)------------|

G|-----------------------------------|
D|-----------------------------------|
A|-2(X16)--0(X16)----------5(X16)----|
E|-----------------0(X16)------------|

G|-----------------------------------|
D|-----------------------------------|
A|-5(X16)-----------------5-55-55-55-|
E|---------2(X16)--0(X16)------------|

CHORUS

G|---------14----13----14--14--13-|---------14----13----14--14--13-|
D|-0-0-0-0-----0-----0------------|--------------------------------|
A|--------------------------------|-0-0-0-0-----0-----0------------|
E|--------------------------------|--------------------------------|

G|---------4----4----6--6--4-|---------2----1----4--4--2-|
D|------------2--------------|-0-0-0-0----0----0---------|
A|-----------------7---------|---------------------------|
E|-0-0-0-0-------------------|---------------------------|

G|---------14----13----14--14--13-|---------14----13----14--14--13-|
D|-0-0-0-0-----0-----0------------|--------------------------------|
A|--------------------------------|-0-0-0-0-----0-----0------------|
E|--------------------------------|--------------------------------|

G|---------4----4----6--6--4-|---------2----1----4--4--2-|
D|------------2--------------|-0-0-0-0----0----0---------|
A|-----------------7---------|---------------------------|
E|-0-0-0-0-------------------|---------------------------|

POST-CHORUS 2

G|---------------------|
D|---------------------|
A|-5--------------5----|
E|------2----0---------|

G|---------------------------------|
D|---------------------------------|
A|-5(X16)------------------5(X16)--|
E|---------2(X16)--0(X16)----------|

FINAL CHORUS

G|---------------------------------|
D|---------------------------------|
A|-2(X8)------------------5(X8)----|
E|--------2(X8)--0(X8)-------------|

G|---------------------------------|
D|---------------------------------|
A|-2(X16)------------------5(X16)--|
E|---------2(X16)--0(X16)----------|




G|---------14----13----14--14--13-|---------14----13----14--14--13-|
D|-0-0-0-0-----0-----0------------|--------------------------------|
A|--------------------------------|-0-0-0-0-----0-----0------------|
E|--------------------------------|--------------------------------|

G|---------4----4----6--6--4-|---------2----1----4--4--2-|
D|------------2--------------|-0-0-0-0----0----0---------|
A|-----------------7---------|---------------------------|
E|-0-0-0-0-------------------|---------------------------|

G|---------14----13----14--14--13-|---------14----13----14--14--13-|
D|-0-0-0-0-----0-----0------------|--------------------------------|
A|--------------------------------|-0-0-0-0-----0-----0------------|
E|--------------------------------|--------------------------------|

G|---------4----4----6--6--4-|---------2----1----4--4--2-|
D|------------2--------------|-0-0-0-0----0----0---------|
A|-----------------7---------|---------------------------|
E|-0-0-0-0-------------------|---------------------------|

INTERLUDE

G|---------------------|
D|---------------------|
A|---------------------| (GUITAR SOLO)
E|---------------------|

G|-----------------------------------|
D|-----------------------------------|
A|-5(X16)--0(X16)----------5(X16)----|
E|-----------------0(X16)------------|

OUTRO

G|---------------------------------|
D|---------------------------------|
A|--5--5----------------0/4--2--0--|
E|---------------2--2--0--0---------------|





Calificar esta versión:
Aviso: Este fichero es trabajo propio de su transcriptor y representa su interpretación personal de la canción. El material contenido en esta página es para exclusivo uso privado, por lo que se prohibe su reproducción o retransmisión, así como su uso para fines comerciales.
Más versiones de Untouched, The Veronicas
Untouched
acordes
Untouched (ver 2)
acordes
Untouched
tablatura
Untouched (ver 2)
tablatura
Untouched
bajo
Descubre más canciones de The Veronicas