Under Cover Of Darkness, The Strokes (tablatura) (ver 3)

Autor: aibj900915 | 40961 visualizaciones



Undercover Of Darkness

The Strokes

Del Nuevo album Angles 

Afinacion: Drop D

Guitarra I   (E B G D A D) Albert Hammond Jr.
Guitarra II  (E B G D A D) Nick Valensi   

Esto significa que se afina en estandar y la sexta cuerda se baja un tono

Intro:

Albert:
||----------------------------------------------------------||
||o---16-16----16-----------16-16----16---------------------||
||----16-16------15--15-----16-16------15--15---------------||
||----16-16--------16-------16-16--------16-----------------||
||o-------------------------------------------------------- ||
||----------------------------------------------------------||

||-------------------------------------------------------------||
||--17?17---17-17?-16-16--14--12-----17-17--------------------o||
||--18-18----------------------------18-18----16h18-------18---||
||--------------------------------------------18-------/16-----||
||------------------------------------------------------------o||
||-------------------------------------------------------------||

Nick:
|----------------------------------------------------------|
|----16-16----16-----------16-16----16---------------------|
|----16-16------15--15-----16-16------15--15---------------|
|----16-16--------16-------16-16--------16-----------------|
|----------------------------------------------------------|
|----------------------------------------------------------|

|-----------------------------------------------------------------|
|--17?17---17-17?-16-16--14--12----------17-17--------------------|
|--18-18---------------------------------18-18----16h18-------18--|
|-------------------------------------------------18-------/16----|
|-----------------------------------------------------------------|
|-----------------------------------------------------------------|

|-----------------------------------17b19---14----16---------|
|----16-16----16b--14--12-----16---------------------16------|
|----16-16--------------------16-----------------------------|
|----16-16--------------------16-----------------------------|
|------------------------------------------------------------|
|------------------------------------------------------------|

|----------16-16--14-14--12--11-----------------------------------|
|--17?17---17-17?-16-16--14--12----------17-17---16h17------18----|
|--18-18---------------------------------18-18---16------/16------|
|-----------------------------------------------------------------|
|-----------------------------------------------------------------|
|-----------------------------------------------------------------|

Verso: solo Nick Albert está tocando unos acordes que tu puedes encontrar (Recuerda la sexta cuerda un tono abajo, o sea dos trastes debe sonar igual que la 5ª en el traste 7.)

|-------------------------------------------|
|-------------------------------------------|
|-------------------------------------------|
|----------------9--------------------------|
|--------------------------9--12------------|
|-9-9-9-9-9-9-9------9--13------13--19------|





|-------------------------------------------------|
|-------------------------------------------------|
|-------------------------------------------------|
|----------------------13-------------------------|
|--------------------------------13--16-----------|
|-13-13-13-13-13-13-13----13--16--------16--13----|

|-------------------------------------------------|
|-------------------------------------------------|
|-------------------------------------------------|
|---------------6---------------------------------|
|-----------------------6--9----------------------|
|-6-6-6-6-6-6-6----6--9-------9--6----------------|

|-------------------------------------------------|
|-------------------------------------------------|
|-------------------------------------------------|
|-------------------------------------------------|
|------------------/6-4---------------------------|
|-2-2-2-2-2-2-2----------6-4----------------------|

|--------------------------------------------|
|--------------------------------------------|
|--------------------------------------------|
|-----------------9--------------------------|
|---------------------------9--12------------|
|-/9-9-9-9-9-9-9------9--13------13--19------|

|-------------------------------------------------|
|-------------------------------------------------|
|-------------------------------------------------|
|----------------------13-------------------------|
|--------------------------------13--16-----------|
|-13-13-13-13-13-13-13----13--16--------16--13----|

|----------------------------------------------------------|
|----------------------------------------------------------|
|----------------------------------------------------------|
|----------------------------------------------------------|
|----------------------------------------------------------|
|--9-9-9-9/11-11-11-11/13-13-13-13/6-6-6-6/9-9-9-9-9-9-9---|

Coro:
|---2--2---2-2--2----2--2---2-2--2-------------|
|o--4--4---4-4--4----4--4---4-4--4-------------|
|----------------------------------------------|
|----------------------------------------------|
|o---------------------------------------------|
|----------------------------------------------|

|-4--4---4-4--4----4--4---4-4--4------------|
|-5--5---5-5--5----5--5---5-5--5------------|
|-------------------------------------------|
|-------------------------------------------|
|-------------------------------------------|
|-------------------------------------------|

|-2--2---2-2--2----2--2---2-2--2------------|
|-4--4---4-4--4----4--4---4-4--4------------|
|-------------------------------------------|
|-------------------------------------------|
|-------------------------------------------|
|-------------------------------------------|







|-2--2---2-2--2----2--2---2-2--2-------------|
|-2--2---2-2--2----2--2---2-2--2------------o|
|--------------------------------------------|
|--------------------------------------------|
|-------------------------------------------o|
|--------------------------------------------|

    |-------a-------|  |--------b--------|   |--------c--------|                 
|----2----2---2----2-----4-----4---4----4-----2-----2---2----2---|
|o--4--4-4---4--4-4-----5--5-5----5--5-5-----2---2-2---2--2-2---o| Se repite a después 
|----------------------------------------------------------------| de b y luego c
|----------------------------------------------------------------| 
|o--------------------------------------------------------------o|
|----------------------------------------------------------------|

|-2---4---6---11---9----6----------------------|
|-4---5---7---12---11---7----------------------| toca estos acordes al final
|----------------------------------------------| del coro.  
|----------------------------------------------|  
|----------------------------------------------|
|----------------------------------------------|

Solo:
|--------------------------------------------------|
|---11-12---11-12-11------11-12--11-12-11----------|
|-9-------9----------9--11-----11--------11--------|
|--------------------------------------------------|
|--------------------------------------------------|
|--------------------------------------------------|

|-------------------------9----12?11/7---7-11b12r11---|
|--11-12--11-12-11-----11---12---------8--------------|
|-9-----9----------9-8--------------------------------|
|-----------------------------------------------------|
|-----------------------------------------------------|
|-----------------------------------------------------|

|--------------------------------------------------|
|------/7/12/16----/9h11h12/14/16p14p12\11\9\7-----|
|--------------------------------------------------|
|--------------------------------------------------|
|--------------------------------------------------|
|--------------------------------------------------|

|--------------------------------------------------|
|---11-12---11-12-11------11-12--11-12-11----------|
|-9-------9----------9--11-----11--------11--------|
|--------------------------------------------------|
|--------------------------------------------------|
|--------------------------------------------------|

|----------------------------------------------|
|--11-12--11-12-11-----------------------------|
|-9-----9----------9?--8/6---------------------|
|----------------------------------------------|
|----------------------------------------------|
|----------------------------------------------|

Repite el coro una vez y termina con el intro. Eso debería ser suficiente para tocarla completa escucha bien el coro para saber cómo tocar esos acordes y si es necesario ve el video o presentaciones en vivo de esta canción, eso siempre ayuda.





Calificar esta versión:
Aviso: Este fichero es trabajo propio de su transcriptor y representa su interpretación personal de la canción. El material contenido en esta página es para exclusivo uso privado, por lo que se prohibe su reproducción o retransmisión, así como su uso para fines comerciales.
Más versiones de Under Cover Of Darkness, The Strokes
Under Cover Of Darkness
tablatura
Under Cover Of Darkness (ver 2)
tablatura
Under Cover Of Darkness (ver 3)
tablatura
Descubre más canciones de The Strokes