Under Cover Of Darkness, The Strokes (tablatura)

Autor: angel14 | 41859 visualizaciones



Intro: B C#m

Riff 1:
     B               B              C#m                C#m
E | --11b--------- | --11b---------- | -12-12-11-11-9/11- | --------------- | 
B | -----11----11- | ------11----11- | ------------------ | -12h14-12-(b9)12- | 
G | --------11---- | ---------11---- | ------------------ | --------------- | 
D | -------------- | --------------- | ------------------ | --------------- | 
A | -------------- | --------------- | ------------------ | --------------- | 
E | -------------- | --------------- | ------------------ | --------------- | 

Riff 2:
    B              B              C#m                C#m
E- | -11b--------- | 19b----16------ | -12-12-11-11-9/11- | --------------- | 
B | -----12-11-12- | ----1(b9)--16-14- | ------------------ | -12h14-12-(b9)12- | 
G | -------------- | --------------- | ------------------ | --------------- | 
D | -------------- | --------------- | ------------------ | --------------- | 
A | -------------- | --------------- | ------------------ | --------------- | 
E | -------------- | --------------- | ------------------ | --------------- | 


 B
Slip back out of whack at your best
 Ebm
It's a nightmare
 G#m                 E
So I'm joining the army

 B
Know how folks back out, I still call
 Ebm
Will you hate for me now?

 G#m                       C#m
We got the righteous advice to use it
 G#m                       C#m
Got everything but you can just choose it
 B
I won't tie me a puppet on a string

 G#m  E  B  F#
Don't go that way
 G#m  E  B  F#
I'll wait for you

  G#m
And I'm tired of all your friends
   E
They're still at your door
   B             F#
And I won't, I better call you
  G#m      E      B       F#
So long my friend and adversary
B
But I will call you

( B  C#m )

Riff 2:
    B              B              C#m                C#m
E- | -11b--------- | 19b----16------ | -12-12-11-11-9/11- | --------------- | 
B | -----12-11-12- | ----1(b9)--16-14- | ------------------ | -12h14-12-(b9)12- | 
G | -------------- | --------------- | ------------------ | --------------- | 
D | -------------- | --------------- | ------------------ | --------------- | 
A | -------------- | --------------- | ------------------ | --------------- | 
E | -------------- | --------------- | ------------------ | --------------- | 


B
Get dressed jump out of bed and do it best
Ebm
Are you ok?
G#m                       C#m
I've been out around this town
G#m                           C#m        B
Everybody's been singing the same song ten years

 G#m   E   B  F#
I'll wait for you
 G#m   E   B  F#
Will you wait for me too?

 G#m
And they sacrifice their lives
 E
In our land are all closed eyes

 B F#
I've been saying we're beaten down, I won't say it again

 G#m     E   B
So long, my end
 F#
The sorry embrace

Solo: C#m Ebm C#m B G B G#m C#m Ebm C#m B Bb

E | ----6-7--6-7-6-----6-7--6-7-6------6-7--6-7-6---6-(b9)7-12b-11----------------12b-- | 
B | --5-----5-----5---7----7-----7---5-----5-----5-4--------------12-(b9)11-12/14------ | 
G | --------------------------------------------------------------------------------- | 
D | --------------------------------------------------------------------------------- | 
A | --------------------------------------------------------------------------------- | 
E | --------------------------------------------------------------------------------- | 

E | -----11----------11-11-(b9)7--------6-7--6-7-6-----6-7--6-7-6-----6-7--6-7-6------- | 
B | -7-12--(b9)11-12-14---------11-(b9)5-----5-----5---7----7-----7---5-----5------5-4-2- | 
G | --------------------------------------------------------------------------------- | 
D | --------------------------------------------------------------------------------- | 
A | --------------------------------------------------------------------------------- | 
E | --------------------------------------------------------------------------------- | 


G#m   E   B  F#
Don't go that way
G#m   E   B  F#
I'll wait for you

 G#m
And I'm tired of all your friends
 E
They're still at your door
 B F#
And I won't, I better call you
 G#m E B F#
So long my friend and adversary
 B
I'll wait for you 
	 Learn how to play "Under Cover Of Darkness" with online video lessons	
DRAG
Ebm















VARIATION
DRAG
G#m















VARIATION
DRAG
C#m















VARIATION
DRAG
F#















VARIATION
DRAG
Bb















VARIATION
DRAG
G















VARIATION
DRAG
E















VARIATION
DRAG
B















VARIATION





Comentarios del colaborador: www.911tabs.com

Calificar esta versión:
Aviso: Este fichero es trabajo propio de su transcriptor y representa su interpretación personal de la canción. El material contenido en esta página es para exclusivo uso privado, por lo que se prohibe su reproducción o retransmisión, así como su uso para fines comerciales.
Más versiones de Under Cover Of Darkness, The Strokes
Under Cover Of Darkness
tablatura
Under Cover Of Darkness (ver 2)
tablatura
Under Cover Of Darkness (ver 3)
tablatura
Descubre más canciones de The Strokes