All The Love In The World, The Outfield (tablatura)

Autor: alan alberto | 18449 visualizaciones

all the love in the world by the outfield

intro:

e-----------------------------------|
B----------7---9--10---9---7---7--9-|
G-----9-----------------------------|
D---9---9----9---9---9---9---9------| (x4)
A-----------------------------------|
E-----------------------------------|

Verse: PM

e-----------------------------------|
B----------7---9--10---9---7---7--9-|
G-----9-----------------------------|
D---9---9----9---9---9---9---9------| (x2)
A-----------------------------------|
E-----------------------------------|

intro:

e-----------------------------------|
B----------7---9--10---9---7---7--9-|
G-----9-----------------------------|
D---9---9----9---9---9---9---9------| (x2)
A-----------------------------------|
E-----------------------------------|


chorus:

B5 A5 (x3)

verse

chorus

bridge:

e---------------------------------------------------------|
B---------5-------------5-------------5-------------5-----|
G-------6---6---------6---6---------4---4---------4---4---| (x2)
D-----6-------6-----6-------6-----4-------4-----4-------4-|
A---4-------------4-------------2-------------2-----------|
E---------------------------------------------------------|

solo:

e---------------------------------------------------9-11-12-14-14b16-|
B-------------------------------------------9-10-12------------------|
G---11b13----------------------------8-9-11--------------------------|
D-----------11b13r11--9-9/14---9-11----------------------------------|
A--------------------------------------------------------------------|
E--------------------------------------------------------------------|

e----------------------------------------0---------------------------------|
B-------------------5----------------------2----2-5-7-5-2------5-----------|
G---9--9-9-8------6---6----6-6--4------2-----2--2-4-6-4-2------------------|
D---9--9-9-8----6-------6--6-6--4----2-----------------------6---6b8-6b8r6-|
A---7--7-7-6--4------------4-4--2--0-----------------------4---------------|
E--------------------------------------------------------------------------|

e--------(12)-|
B---(12)------|
G-------------|
D-------------|
A-------------|
E-------------|

Calificar esta versión:
Aviso: Este fichero es trabajo propio de su transcriptor y representa su interpretación personal de la canción. El material contenido en esta página es para exclusivo uso privado, por lo que se prohibe su reproducción o retransmisión, así como su uso para fines comerciales.
Más versiones de All The Love In The World, The Outfield
All The Love In The World
acordes
All The Love In The World
tablatura
Descubre más canciones de The Outfield