All The Love In The World, The Outfield (acordes)

Autor: rayado | 40532 visualizaciones

abcsose
all the love in the world by the outfield

intro:

e-----------------------------------|
B----------7---9--10---9---7---7--9-|
G-----9-----------------------------|
D---9---9----9---9---9---9---9------| [x4]
A-----------------------------------|
E-----------------------------------|

E,C#,A,E 
I can't believe the things that happen to me  
I guess that I should have seen a long, long time ago  
Letters you write don't help me get through the night  
So I'll just turn out the light  
and sleep here all alone  
 
[Chorus]-B,A,B,A 
All the love, all the love in the world  
All the love, I'll be sending you girl  
All the love  
All the love in the world  
 
verse 2--E,C#,A,E 
Time after time I put my life on the line  
But I ain't committed no crime, so take what you can find  
Forget what I say cos I'll keep running away  
I only live for today, but I'm one day behind  
 
[Chorus]  
 
Bridge--C# B C# B 
These are the words that I whisper on every first night  
but that day you left me  
those words were on that same flight  
 
instrumental--E C# A E 
 
solo:

e---------------------------------------------------9-11-12-14-14b16-|
B-------------------------------------------9-10-12------------------|
G---11b13----------------------------8-9-11--------------------------|
D-----------11b13r11--9-9/14---9-11----------------------------------|
A--------------------------------------------------------------------|
E--------------------------------------------------------------------|

e----------------------------------------0---------------------------------|
B-------------------5----------------------2----2-5-7-5-2------5-----------|
G---9--9-9-8------6---6----6-6--4------2-----2--2-4-6-4-2------------------|
D---9--9-9-8----6-------6--6-6--4----2-----------------------6---6b8-6b8r6-|
A---7--7-7-6--4------------4-4--2--0-----------------------4---------------|
E--------------------------------------------------------------------------|

e--------[12]-|
B---[12]------|
G-------------|
D-------------|
A-------------|
E-------------|


E C# A E 
I can't believe the things that happen to me  
I guess that I should have seen a long, long time ago  
Letters you write don't help me get through the night  
so I'll just turn out the light  
and sleep here all alone
Calificar esta versión:
Aviso: Este fichero es trabajo propio de su transcriptor y representa su interpretación personal de la canción. El material contenido en esta página es para exclusivo uso privado, por lo que se prohibe su reproducción o retransmisión, así como su uso para fines comerciales.
Más versiones de All The Love In The World, The Outfield
All The Love In The World
acordes
All The Love In The World
tablatura
Descubre más canciones de The Outfield