Just Like Heaven, The Cure (tablatura) (ver 2)

Autor: sonac32 | 42820 visualizaciones



intro:

bajo

4-|-5-5-5-0-0-0-0-0---------------------|
3-|-----------------2-2-2-2-2-5-5-5-5-5-|
2-|-------------------------------------|
1-|-------------------------------------|

guitarra 1 (requinto)

6-|-X
5-|-4-4-4-4-4--2-2-2-2-2-2--5-5-5-5-5--9-9-9-9-9
4-|-X
3-|-X
2-|-X
1-|-X

aqui entra con la guitarra 2 de acompañamiento

    A          E            Bm         D
6-|----------------------------------------------|
5-|-4-4-4-4-4--2-2-2-2-2-2--5-5-5-5-5--9-9-9-9-9-|
4-|----------------------------------------------| (X2)
3-|----------------------------------------------|
2-|----------------------------------------------|
1-|----------------------------------------------|

Teclado (cambiado a guitarra)

6-|-----------------|
5-|-----------------|
4-|-----------------|    (X1)
3-|-----------------|
2-|------5-3--2-3-5-|
1-|-5--4------------|

guitarra 1
    A                 E          Bm             D
6-|---------------------------------------------------|
5-|---------------------------------------------------|
4-|---------------------------------------------------|
3-|---------------------------------------------2-2---|
2-|-14-14-14-12-12-10-9-9-7-7-5-3-3-3-2-3-0-0-0-----0-|
1-|---------------------------------------------------|
     A                E          Bm             D          
6-|-----------------------------------------------------|
5-|-----------------------------------------------------|
4-|-----------------------------------------------------|
3-|-----------------------------------------------2-2---|
2-|-5/14-14-14-12-12-10-9-9-7-7-5-3-3-3-2-3-0-0-0-----0-|
1-|-----------------------------------------------------|
     A                E               Bm             D
6-|-----------------------------------------------------------
5-|-----------------------------------------------------------
4-|----------------------------------------15-15-17-17-17-15-15
3-|6-6-7-7-9-11-11-11-13-13-14-16-16-18-18--------------------
2-|-----------------------------------------------------------
1-|-----------------------------------------------------------
   
     A                E          Bm             D (guitarra 2)
                                            show me, show me    
6-|---------------------------------------------------|
5-|---------------------------------------------------|
4-|---------------------------------------------------|
3-|---------------------------------------------2-2---|
2-|-14-14-14-12-12-10-9-9-7-7-5-3-3-3-2-3-0-0-0-----0-|
1-|---------------------------------------------------|

A                E
show me how you do that trick 
Bm                    D
The one that makes me scream" she said 
A                         E
The one that makes me laugh" she said 
Bm                  D
threw her arms around my neck 
A                E         
Show me how you do it 
      Bm            D
and I promise you I promise that 
            A            E
I'll run away with you 
            Bm           D
I'll run away with you

guitarra 1
    A                 E          Bm             D
6-|---------------------------------------------------|
5-|---------------------------------------------------|
4-|---------------------------------------------------|
3-|---------------------------------------------2-2---|
2-|-14-14-14-12-12-10-9-9-7-7-5-3-3-3-2-3-0-0-0-----0-|
1-|---------------------------------------------------|
     A                E          Bm             D          
6-|-----------------------------------------------------|
5-|-----------------------------------------------------|
4-|-----------------------------------------------------|
3-|-----------------------------------------------2-2---|
2-|-5/14-14-14-12-12-10-9-9-7-7-5-3-3-3-2-3-0-0-0-----0-|
1-|-----------------------------------------------------|
     A                E               Bm             D
6-|-----------------------------------------------------------
5-|-----------------------------------------------------------
4-|----------------------------------------15-15-17-17-17-15-15
3-|6-6-7-7-9-11-11-11-13-13-14-16-16-18-18--------------------
2-|-----------------------------------------------------------
1-|-----------------------------------------------------------
     A                E          Bm             D 
6-|---------------------------------------------------|
5-|---------------------------------------------------|
4-|---------------------------------------------------|
3-|---------------------------------------------2-2---|
2-|-14-14-14-12-12-10-9-9-7-7-5-3-3-3-2-3-0-0-0-----0-|
1-|---------------------------------------------------|

A                E
Spinning on that dizzy edge 
  Bm                   D
I kissed her face and kissed her head 
A                   E
dreamed of all the different ways 
  Bm               D
I had to make her glow 
A               E                Bm
Why are you so far away?" she said 
              D                     A           E
Why won't you ever know that I'm in love with you? 
             Bm             D
That I'm in love with you? 

F#m
You 
G
Soft and only 
F#m
You 
G
Lost and lonely 
F#m
You 
G
Strange as angels 
D
Dancing in the deepest oceans 
Twisting in the water 
You're just like a dream... 

6-|----------------------------------------
5-|----------------------------------------
4-|-----------7-9-9-9-7-9-----------5-5-5-5
3-|-9-9-9-9-6-------------6-7-6-7----------
2-|-------------------------------5--------
1-|----------------------------------------

6-|----------------------------------------
5-|----------------------------------------
4-|-----------7-9-9-9-7-9-----------5-5-5-5
3-|-9-9-9-9-6-------------6-7-6-7----------
2-|-------------------------------5--------
1-|----------------------------------------

6-|----------------------------------------------------------->
5-|----------------------------------------------------------->
4-|----------------------------------------------------------->
3-|----------------------------------------------------------->
2-|-10-10-10-10/12-12/14-14-10-12-10-12-10-12--12-12-17-17-17->
1-|----------------------------------------------------------->

           A                 E          Bm             D
<------------------------------------------------------------|
<------------------------------------------------------------|
<------------------------------------------------------------|
<------------------------------------------------------2-2---|
<-15-15-15-14-14-14-12-12-10-9-9-7-7-5-3-3-3-2-3-0-0-0-----0-|
<------------------------------------------------------------|

A                  E
Daylight licked me into shape 
Bm                  D
I must have been asleep for days 
A                     E
And moving lips to breathe her name 
Bm               D
I opened up my eyes 
    A             E
And found myself alone, Alone 
  Bm             D
Alone above a raging sea 

A                E                Bm                D
stole the only girl I loved  And drowned her deep inside of me 
6-|---------------------------------------------------|
5-|---------------------------------------------------|
4-|---------------------------------------------------|
3-|---------------------------------------------2-2---|
2-|-14-14-14-12-12-10-9-9-7-7-5-3-3-3-2-3-0-0-0-----0-|
1-|---------------------------------------------------|

F#m
You 
G
Soft and only 
F#m
You 
G
Lost and lonely 
F#m
You 
D
Just like heaven.


Esta cancién se la kiero dedicar a Delia Rosales Jimenez
espero algún día me puedas dar algúna oportunidad
ojalá te guste y a los demás tambien jeje





Calificar esta versión:
Aviso: Este fichero es trabajo propio de su transcriptor y representa su interpretación personal de la canción. El material contenido en esta página es para exclusivo uso privado, por lo que se prohibe su reproducción o retransmisión, así como su uso para fines comerciales.
Más versiones de Just Like Heaven, The Cure
Just Like Heaven
acordes
Just Like Heaven
tablatura
Just Like Heaven (ver 2)
tablatura
Just Like Heaven (ver 3)
tablatura
Descubre más canciones de The Cure