Just Like Heaven, The Cure (tablatura)

Autor: xxblackxpinkxx | 16895 visualizaciones



'Just like heaven', The Cure
________________________________________

*Transcripto por: Seba A.
*buenos aires, argentina, 2007
*email msn por cualquier duda: playing.the.angel_@hotmail.com
________________________________________
//Me encanta, es mi tema preferido aca se los dejo completo://

GUITARRA INTRO:
e/-9-9-9----------------------------------------------------
B/------12-12-12-10-10-9-9-9--------------------------------
G/--------------------------11-11-11-9-9-7-7-6/76-4-4-2-4--
D/----------------------------------------------------------
A/----------------------------------------------------------
E/----------------------------------------------------------
[repetir 2 veces]

GUITARRA INTRO 2:
e-----------------------------------------------9-9-9-10-10-12-12-12-10-10-/
B--------------------------9-9-9-10-10-12-12-12----------------------------/
G-6-6-6-7-7-7-9-9-11-11-11-------------------------------------------------/
D--------------------------------------------------------------------------/
A--------------------------------------------------------------------------/
E--------------------------------------------------------------------------/
[repetir parte 1]



---------------------------
ACORDES/LETRA:

Los acordes que usa hasta el 'Break' son:
A E Bm D


///////////////////////////////////////////////
Pero por si recien empiezan, serían así:

  A   E    Bm    d   F#  G
e|0---0----2-----2---2---2---
B|2---0----3-----3---2---2---
G|2---1----4-----2---2---0---
D|2---2----4-----0---4---0---
A|0---2----2-----x---4---2---
E|----0----2-----x---2---3---


//el acorde Bm se toca con cejilla//
///////////////////////////////////////////////


show me
show me
show me
how you do that trick
the one that makes me scream
she said
the one that makes me laugh
she said
and threw her arms around my neck

show me how you do it
and i promise you
i promise that i'll run away with you
i'll run away with you

spinning on that dizzy edge
i kissed her face and kissed her head
and dreamed of all the different ways i had
to make her glow
why are you so far away?
she said
why won't you ever know that i'm in love with you?
that i'm in love with you?

BREAK:
F#
You,
G
Soft and only
F#
You:
G
Lost and lonely
  F#
You:
G
Strange as angels
 D
Dancing in the deepest oceans
 E
Twisting in the water
You're just like a dream...

daylight licked me into shape
i must have been asleep for days
and moving lips to breathe her name
i opened up my eyes
and found myself alone
alone
alone
above a raging sea
that stole the only girl i loved
and drowned her deep inside of me

BREAk:
F#
you
G
soft and only

F#
you
G
lost and lonely
F#
you
G
just like heaven





Calificar esta versión:
Aviso: Este fichero es trabajo propio de su transcriptor y representa su interpretación personal de la canción. El material contenido en esta página es para exclusivo uso privado, por lo que se prohibe su reproducción o retransmisión, así como su uso para fines comerciales.
Más versiones de Just Like Heaven, The Cure
Just Like Heaven
acordes
Just Like Heaven
tablatura
Just Like Heaven (ver 2)
tablatura
Just Like Heaven (ver 3)
tablatura
Descubre más canciones de The Cure