Unconditional, The Bravery (tablatura)

Autor: fherxo | 42795 visualizaciones



Intro Keyboard Riff - Transcribed for Guitar:

E|-------------------------------12----------------------------------------|
B|---12-----12-----15-----15---------------------------12-----12-15--15--12|
G|-12--12-12--12-14--14-14--14-14--11-14--14-----14--12--12-12-----14--12--|
D|--------------------------------------16--16-16--16----------------------|
A|-------------------------------------------------------------------------|
E|-------------------------------------------------------------------------|

Play this riff 6 times. (Sorry it looks cramped, but it wouldn't fit any other way.)


Ending intro guitar riff:

E|----------------------------------------------------------------------|
B|-/17~~~~17-17-17-17-17-17-17-17-17-17-17-17-17-17-17\15--12--15--12~~~|
G|----------------------------------------------------------------------|
D|----------------------------------------------------------------------|
A|----------------------------------------------------------------------|
E|----------------------------------------------------------------------|

Play this on the 6th time of the repeated introduction.


Short guitar riff before chorus:

E|------------------|
B|-20----17--20--19-|
G|----16------------|
D|------------------|
A|------------------|
E|------------------|





Calificar esta versión:
Aviso: Este fichero es trabajo propio de su transcriptor y representa su interpretación personal de la canción. El material contenido en esta página es para exclusivo uso privado, por lo que se prohibe su reproducción o retransmisión, así como su uso para fines comerciales.
Más versiones de Unconditional, The Bravery
Unconditional
tablatura
Unconditional
bajo
Descubre más canciones de The Bravery