Unconditional, The Bravery (bajo)

Autor: fherxo | 35561 visualizaciones



=====Intro / Chorus Riff======

g-------------------------------------------------------------------------|
d-------------------5-5-5-5-5-5-5-5-7-----------------5-5-5-5-5-4-4-4-5---|  x4
a-----7-7-7-7-7-7-7-------------------5-5-5-5-5-5-5-5---------------------|
e-------------------------------------------------------------------------|
       (7 strokes)       (9 strokes)    (7 strokes)   (9 strokes)


pre-verse
g-------------------------------------------------------------------------|
d-------------------5-5-5-5-5-5-5-5-7-------------------------------------|  x1
a-----7-7-7-7-7-7-7-------------------5-5-5-5-5-5-5-5-7-------------------|
e-------------------------------------------------------------------------|
       (7 strokes)       (9 strokes)    (7 strokes)   (hold)
============


=====Verse=====
g-------------------------------------------------------------------------|
d---------------------5-5-5-5-5-5-5-5-------------------------------------|  x3
a----7-7-7-7-7-7-7-7------------------3-3-3-3-3-3-3-3-0-0-0-0-0-0-0-0-----|
e-------------------------------------------------------------------------|
       (8 strokes)     (8 strokes)    (8 strokes)       (8 strokes)


pre-chorus
g---------9-9-9-9-9------9---7---7-h9--------|
d-------------------7-h9---7---7-------------| x3
a--7-7-7-------------------------------------|(8 beats rest after last one)
e--------------------------------------------|
============

=======chorus======
g-------------------------------------------------------------------------|
d-------------------5-5-5-5-5-5-5-5-7-----------------5-5-5-5-5-4-4-4-5---|  x3
a-----7-7-7-7-7-7-7-------------------5-5-5-5-5-5-5-5---------------------|
e-------------------------------------------------------------------------|
       (7 strokes)       (9 strokes)    (7 strokes)   (9 strokes)

pre-verse
g-------------------------------------------------------------------------|
d-------------------5-5-5-5-5-5-5-5-7-------------------------------------|  x1
a-----7-7-7-7-7-7-7-------------------5-5-5-5-5-5-5-5-7-------------------|
e-------------------------------------------------------------------------|
       (7 strokes)       (9 strokes)    (7 strokes)   (hold)
==============

========Verse======
g-------------------------------------------------------------------------|
d---------------------5-5-5-5-5-5-5-5-------------------------------------|  x3
a----7-7-7-7-7-7-7-7------------------3-3-3-3-3-3-3-3-0-0-0-0-0-0-0-0-----|
e-------------------------------------------------------------------------|
       (8 strokes)     (8 strokes)    (8 strokes)       (8 strokes)


pre-chorus
g---------9-9-9-9-9------9---7---7-h9--------|
d-------------------7-h9---7---7-------------| x3
a--7-7-7-------------------------------------|(8 beats rest after last one)
e--------------------------------------------|
=============

======chorus=====
g-------------------------------------------------------------------------|
d-------------------5-5-5-5-5-5-5-5-7-----------------5-5-5-5-5-4-4-4-5---|  x3
a-----7-7-7-7-7-7-7-------------------5-5-5-5-5-5-5-5---------------------|
e-------------------------------------------------------------------------|
       (7 strokes)       (9 strokes)    (7 strokes)   (9 strokes)
=============

=====Bridge======
g----------------------------------------------------------------------|
d-------------------5-5-5-5-5-5-5-5------------------------------------|
a---7-7-7-7-7-7-7-7-----------------3-3-3-3-3-3-3-3-0-0-0-0-0-0-0-0-0--|
e----------------------------------------------------------------------|


g----------------------------------------------------------------------|
d-------------------5-5-5-5-5-5-5-5------------------------------------|
a---7-7-7-7-7-7-7-7-----------------3-3-3-3-3-3-3-3-0-0-0-0-0-0-0-0-0--|
e----------------------------------------------------------------------|


g--------------------------------------|
d--------------------------------------|
a--7-7-7-2-3-3-0-0----7-7-7-2-3-3-0-0--|
e--------------------------------------|

g--------------------------------------|
d--------------------------------------|
a--7-7-7-2-3-3-0-0----7-7-7-2-3-3-0-0--|
e--------------------------------------|
================


then a chorus in which the bass doesnt come in until sung 2 lines. come in with:

g---------9-9-9-9-9------9---7---7-h9--|
d-------------------7-h9---7---7-------| x2
a--7-7-7-------------------------------|
e--------------------------------------|

and
g-------------------------------------------------------------------------|
d-------------------5-5-5-5-5-5-5-5-7-----------------5-5-5-5-5-4-4-4-5---|  to end
a-----7-7-7-7-7-7-7-------------------5-5-5-5-5-5-5-5---------------------|
e-------------------------------------------------------------------------|
       (7 strokes)       (9 strokes)    (7 strokes)   (9 strokes)





Calificar esta versión:
Aviso: Este fichero es trabajo propio de su transcriptor y representa su interpretación personal de la canción. El material contenido en esta página es para exclusivo uso privado, por lo que se prohibe su reproducción o retransmisión, así como su uso para fines comerciales.
Más versiones de Unconditional, The Bravery
Unconditional
tablatura
Unconditional
bajo
Descubre más canciones de The Bravery