An Honest Mistake, The Bravery (tablatura)

Autor: fherxo | 42705 visualizaciones



INTRO:PART ONE

E ----------------------------------------------------------------------|
B ----------------------------------------------------------------------|
G ---(FADES IN)----14-----(HOLD NOTE)------/17--------------------------|
D ---------------------------------------------15--14-/-15---17--14-----|
A ----------------------------------------------------------------------|
E ----------------------------------------------------------------------|


INTRO:PART TWO

E -19-/-20---18-17----------20--18--17----------------------------------|
B -----------------18-------------------18-/-20-------------------------|
G ----------------------------------------------19----------------------|
D ----------------------------------------------------------------------|
A ----------------------------------------------------------------------|
E ----------------------------------------------------------------------|

INTRO:PART THREE

E ----------------------------------------------------------------------|
B ------18--------------------------------------------------------------|
G ---17----------19-----------------------------------------------------|
D ------------17--------------------------------------------------------|
A ------------------15~-------------------------------------------------|
E ----------------------------------------------------------------------|

VERSE:


E -----------------------------------------------------------17~--------|
B ----------------------------------------------------------------------|
G ----------------------------------------------------------------------|
D ----------------------------------------------------------------------|
A ----------------------------------------------------------------------|
E ----------------------------------------------------------------------|
      People                   They don't mean a thing to you

E ----------------------------------------------------------------------|
B ----------------------------------------------------------------------|
G ----------------------------------------------------------------------|
D ------------------------------------------------------15--14--12~-----|
A ----------------------------------------------------------------------|
E ----------------------------------------------------------------------|
  They move right through you     Just like your breath         but


E ----------------------------------------------------------------------|
B ----------------------------------------------------------------------|
G ----------------------------------------------------------------------|
D ----------------------------------------------------------------------|
A ----------------------------------------------------------------------|
E ----------------------------------------------------------------------|
  sometimes                        I still think of you

E ----------------------------------------------------------------------|
B ----------------------------------------------------------------------|
G --------------------14~-----------------------------------------------|
D ----------------------------------------------------------------------|
A ----------------------------------------------------------------------|
E ----------------------------------------------------------------------|
  And I just wanted to          Just wanted you to know,   my     old

E --5-5-----3/5-3-----5-5---3/5-3----------------3-3-3-3-----3-3--------|
B --6-6---------------6-6-----------10-10-10-10--3-3-3-3-----3-3--------|
G --7-7---------------7-7-----------10-10-10-10--4-4-4-4-----4-4--------|
D --7-7---------------7-7-----------10-10-10-10--5-5-5-5-----5-5--------|
A --5-5---------------5-5------------8--8--8--8--5-5-5-5-----5-5--------|
E -----------------------------------------------3-3-3-3-----3-3--------|
   friend...                           I swear I never meant for this

E --5-5-----3/5-3-----5-5---3/5-3---------------------------------------|
B --6-6---------------6-6------------10B11-10B11-10B11-10B11------------|
G --7-7---------------7-7-----------------------------------------------|
D --7-7---------------7-7-----------------------------------------------|
A --5-5---------------5-5-----------------------------------------------|
E ----------------------------------------------------------------------|
                                    I  ne - ver  mea - nt ...

CHORUS:
E ----------------------------------------------------------------------|
B -10-10-10-10-10-10-10-10-10-10-----------10-10-10--12-12-12--10-10-10-|
G -10-10-10-10-10-10-10-10-10-10-----------10-10-10--12-12-12--10-10-10-|
D -----------------------------------------10-10-10--12-12-12--10-10-10-|
A ------------------------------------------8--8--8--10-10-10--8---8--8-|
E ----------------------------------------------------------------------|
  Don't  look  at   me   that   way . . .

E ----------------------------------------------------------------------|
B -10-10-10-10-10-10-10-10-10-10-----------10-10-10--12-12-12--10-10-10-|
G -10-10-10-10-10-10-10-10-10-10-----------10-10-10--12-12-12--10-10-10-|
D -----------------------------------------10-10-10--12-12-12--10-10-10-|
A ------------------------------------------8--8--8--10-10-10--8---8--8-|
E ----------------------------------------------------------------------|
  It  was   an    honest   mistake  . . .

E ----------------------------------------------------------------------|
B -10-10-10-10-10-10-10-10-10-10-10-10-10-10-10-10-10-10-10-------------|
G -10-10-10-10-10-10-10-10-10-10-10-10-10-10-10-10-10-10-10-------------|
D ----------------------------------------------------------------------|
A -------------------------------------------------------------15-15-15-|
E ----------------------------------------------------------------------|
   Don't  look  at   me   that   way,  it   was   an   honest   mistake

E ----------------------------------------------------------------------|
B -----------18--19/18~-------------------------------------------------|
G ----------------------------------------------------------------------|
D ----------------------------------------------------------------------|
A 15-15-15-15-----------------------------------------------------------|
E ----------------------------------------------------------------------|
  an   honest    mistake

VERSE:
E ----------------------------------------------------------------------|
B -----------18---------------------------------------------------------|
G ---------17-----------------------------------------------------------|
D ------------------19-17~----------------------------------------------|
A ----------------------------------------------------------------------|
E ----------------------------------------------------------------------|
  Sometimes                 I forget I'm still awake

E -------------------------------------------22~------------------------|
B -----------18------------------------18~------------------------------|
G ---------17---------17------------------------------------------------|
D ----------------------------17----------------------------------------|
A ----------------------------------------------------------------------|
E ----------------------------------------------------------------------|
  I fuck up      and say these things out loud           my        old

E --5-5-----3/5-3-----5-5---3/5-3----------------3-3-3-3-----3-3--------|
B --6-6---------------6-6-----------10-10-10-10--3-3-3-3-----3-3--------|
G --7-7---------------7-7-----------10-10-10-10--4-4-4-4-----4-4--------|
D --7-7---------------7-7-----------10-10-10-10--5-5-5-5-----5-5--------|
A --5-5---------------5-5------------8--8--8--8--5-5-5-5-----5-5--------|
E -----------------------------------------------3-3-3-3-----3-3--------|
   friend...                           I swear I never meant for this

E --5-5-----3/5-3-----5-5---3/5-3---------------------------------------|
B --6-6---------------6-6------------10B11-10B11-10B11-10B11------------|
G --7-7---------------7-7-----------------------------------------------|
D --7-7---------------7-7-----------------------------------------------|
A --5-5---------------5-5-----------------------------------------------|
E ----------------------------------------------------------------------|
                                    I  ne - ver  mea - nt ...

CHORUS:
E ----------------------------------------------------------------------|
B -10-10-10-10-10-10-10-10-10-10-----------10-10-10--12-12-12--10-10-10-|
G -10-10-10-10-10-10-10-10-10-10-----------10-10-10--12-12-12--10-10-10-|
D -----------------------------------------10-10-10--12-12-12--10-10-10-|
A ------------------------------------------8--8--8--10-10-10--8---8--8-|
E ----------------------------------------------------------------------|
  Don't  look  at   me   that   way . . .

E ----------------------------------------------------------------------|
B -10-10-10-10-10-10-10-10-10-10-----------10-10-10--12-12-12--10-10-10-|
G -10-10-10-10-10-10-10-10-10-10-----------10-10-10--12-12-12--10-10-10-|
D -----------------------------------------10-10-10--12-12-12--10-10-10-|
A ------------------------------------------8--8--8--10-10-10--8---8--8-|
E ----------------------------------------------------------------------|
  It  was   an    honest   mistake  . . .

E ----------------------------------------------------------------------|
B -10-10-10-10-10-10-10-10-10-10-10-10-10-10-10-10-10-10-10-------------|
G -10-10-10-10-10-10-10-10-10-10-10-10-10-10-10-10-10-10-10-------------|
D ----------------------------------------------------------------------|
A -------------------------------------------------------------15-15-15-|
E ----------------------------------------------------------------------|
   Don't  look  at   me   that   way,  it   was   an   honest   mistake

E ----------------------------------------------------------------------|
B ----------------------------------------------------------------------|
G ----------------------------------------------------------------------|
D ----------------------------------------------------------------------|
A 15-15-15-15-----------------------------------------------------------|
E ----------------------------------------------------------------------|
  an   honest    mistake           oh     woah      oh !

E ----------------------------------------------------------------------|
B ----------------------------------------------------------------------|
G ---7-~---10-~---------12-~---------------7-~---10-~-------------------|
D ---7-~---10-~--10-~~--12-~---------------7-~---10-~--10-~~------------|
A ---5-~----8-~--10-~~--10-~---------------5-~----8-~--10-~~------------|
E ----------------8-~~----------------------------------8-~~------------|

E --5-5---xxxxx-----5-5---xxxxx-----5-5---xxxxx-----5-5--xxxxx----------|
B --6-6---xxxxx-----6-6---xxxxx-----6-6---xxxxx-----6-6--xxxxx----------|
G --7-7---xxxxx-----7-7---xxxxx-----7-7---xxxxx-----7-7--xxxxx----------|
D --7-7---xxxxx-----7-7---xxxxx-----7-7---xxxxx-----7-7--xxxxx----------|
A --5-5-------------5-5-------------5-5-------------5-5-----------------|
E ----------------------------------------------------------------------|

CHORUS/SOLO:

     *b                                     *s
E ----------------------------------------------------------------------|
B ----------------------------------------------------------------------|
G ---19-19-19-19-19-19-19-19-19-19-19--17---17--------------------------|
D ----------------------------------------------------------------------|
A ----------------------------------------------------------------------|
E ----------------------------------------------------------------------|
  Don't  look  at  me   that   way
  *b = slowly bend the not to full-bend without releasing.
  *s = quickly strum this note





Calificar esta versión:
Aviso: Este fichero es trabajo propio de su transcriptor y representa su interpretación personal de la canción. El material contenido en esta página es para exclusivo uso privado, por lo que se prohibe su reproducción o retransmisión, así como su uso para fines comerciales.
Más versiones de An Honest Mistake, The Bravery
An Honest Mistake
acordes
An Honest Mistake (ver 2)
acordes
An Honest Mistake
tablatura
An Honest Mistake
bajo
An Honest Mistake (ver 2)
bajo
Descubre más canciones de The Bravery