An Honest Mistake, The Bravery (bajo)

Autor: fherxo | 20052 visualizaciones



W                   W                   W                 
G||-------------------|-------------------|-------------------|
D||-------------------|-------------------|-------------------|
A||-------------------|-------------------|-------------------|
E||-------------------|-------------------|-------------------|


  W                   W                   W                 
-------------------|-------------------|-------------------|
-------------------|-------------------|-------------------|
-------------------|-------------------|-------------------|
-------------------|-------------------|-------------------|


  W                   H.            Q          E  E  E  E  E  E  E  E   
-------------------|----------------------||------7-----7-----7-----7--|
-------------------|----------------------||*--------------------------|
-------------------|---------------12S----||*--5-----5-----5-----5-----|
-------------------|----------------------||---------------------------|


  E   E  E   E  E   E  E   E     E   E  E   E  E   E  E   E   
-----10-----10-----10-----10--|------------------------------|
------------------------------|-----10-----10-----10-----10--|
--8------8------8------8------|------------------------------|
------------------------------|--8------8------8------8------|


  E  E  E  E  E  E  E  E     E  E  E  E  E  E  E  E   
-----------------4-----5--|-----7-----7-----7-----7--|
-----5-----5--------------|--------------------------|
--------------2-----3-----|--5-----5-----5-----5-----|
--3-----3-----------------|--------------------------|


  E   E  E   E  E   E  E   E     E   E  E   E  E   E  E   E   
-----10-----10-----10-----10--|------------------------------|
------------------------------|-----10-----10-----10-----10--|
--8------8------8------8------|------------------------------|
------------------------------|--8------8------8------8------|


  E   E  E  E   E   E  E   E   4x  E  E  E  E  E  E  E  E   
------------9------12-----10---||-----7-----7-----7-----7--|
-----10-----------------------*||--------------------------|
---------7-----10------8------*||--5-----5-----5-----5-----|
--8----------------------------||--------------------------|


  E  E  E  E  E  E  E  E     E   E  E   E  E   E  E   E   
-----7-----7-----7-----7--|-----10-----10-----10-----10--|
--------------------------|------------------------------|
--5-----5-----5-----5-----|--8------8------8------8------|
--------------------------|------------------------------|


  Q    E  E  E  E  E  E     E  E  E  E  E  E  E  E   
-------------------------|-----7-----7-----7-----7--|
----------5--------------|--------------------------|
-------------------2--3--|--5-----5-----5-----5-----|
--3----3--------3--------|--------------------------|


  E  E  E  E  E  E  E  E     E   E  E   E  E   E  E   E   
-----7-----7-----7-----7--|-----10-----10-----10-----10--|
--------------------------|------------------------------|
--5-----5-----5-----5-----|--8------8------8------8------|
--------------------------|------------------------------|


   E   E   E   E   E   E   E   E        E  E  E  E  E  E  E  E   
------12--12--12--12--12--12--12S--||------7-----7-----7-----7--|
-----------------------------------||*--------------------------|
--10-------------------------------||*--5-----5-----5-----5-----|
-----------------------------------||---------------------------|


  E  E  E  E  E  E  E  E     E   E  E   E  E   E  E   E   
--------------------------|-----10-----10-----10-----10--|
-----8-----8-----8-----8--|------------------------------|
--------------------------|--8------8------8------8------|
--6-----6-----6-----6-----|------------------------------|


   E   E   S  S  E  E   E   E   E       E  E  E  E  E  E  E  E   
------12--12-12-12-----10--10--10---||-----7-----7-----7-----7--|
-----------------------------------*||--------------------------|
--10-------------------------------*||--5-----5-----5-----5-----|
------------------------------------||--------------------------|


  E  E  E  E  E  E  E  E     E   E  E   E  E   E  E   E   
--------------------------|-----10-----10-----10-----10--|
-----8-----8-----8-----8--|------------------------------|
--------------------------|--8------8------8------8------|
--6-----6-----6-----6-----|------------------------------|


  E   E  E   E  E   E  E   E      E   E   E   E   E   E   E   E   
-----10-----10-----10-----10--|------12------12------12------12--|
------------------------------|----------------------------------|
--8------8------8------8------|--10------10------10------10------|
------------------------------|----------------------------------|


   E   E   E   E   E   E   E   E     E  E  E  E  E  E  E  E   
------12------12------12------12--|-----7-----7-----7-----7--|
----------------------------------|--------------------------|
--10------10------10------10------|--5-----5-----5-----5-----|
----------------------------------|--------------------------|


  E   E  E   E  E   E  E   E     E   E  E   E  E   E  E   E   
-----10-----10-----10-----10--|------------------------------|
------------------------------|-----10-----10-----10-----10--|
--8------8------8------8------|------------------------------|
------------------------------|--8------8------8------8------|


  E   E  E  E   E   E  E   E     E  E  E  E  E  E  E  E   
------------9------12-----10--|-----7-----7-----7-----7--|
-----10-----------------------|--------------------------|
---------7-----10------8------|--5-----5-----5-----5-----|
--8---------------------------|--------------------------|


  E   E  E   E  E   E  E   E     E   E  E   E  E   E  E   E   
-----10-----10-----10-----10--|------------------------------|
------------------------------|-----10-----10-----10-----10--|
--8------8------8------8------|------------------------------|
------------------------------|--8------8------8------8------|


  E  E  E  E  E  E  E  E     E  E  E  E  E  E  E  E   
-----------------4-----5--|-----7-----7-----7-----7--|
-----5-----5--------------|--------------------------|
--------------2-----3-----|--5-----5-----5-----5-----|
--3-----3-----------------|--------------------------|


  E   E  E   E  E   E  E   E     E   E  E   E  E   E  E   E   
-----10-----10-----10-----10--|------------------------------|
------------------------------|-----10-----10-----10-----10--|
--8------8------8------8------|------------------------------|
------------------------------|--8------8------8------8------|


  E   E  E  E   E   E  E   E     E  E  E  E  E  E  E  E   
------------9------12-----10--|-----7-----7-----7-----7--|
-----10-----------------------|--------------------------|
---------7-----10------8------|--5-----5-----5-----5-----|
--8---------------------------|--------------------------|


  E  E  E  E  E  E  E  E     E   E  E   E  E   E  E   E   
-----7-----7-----7-----7--|-----10-----10-----10-----10--|
--------------------------|------------------------------|
--5-----5-----5-----5-----|--8------8------8------8------|
--------------------------|------------------------------|


  Q    E  E  E  E  E  E     E  E  E  E  E  E  E  E   
-------------------------|-----7-----7-----7-----7--|
----------5--------------|--------------------------|
-------------------2--3--|--5-----5-----5-----5-----|
--3----3--------3--------|--------------------------|


  E  E  E  E  E  E  E  E     E   E  E   E  E   E  E   E   
-----7-----7-----7-----7--|-----10-----10-----10-----10--|
--------------------------|------------------------------|
--5-----5-----5-----5-----|--8------8------8------8------|
--------------------------|------------------------------|


   E   E   E   E   E   E   E   E        E  E  E  E  E  E  E  E   
------12--12--12--12--12--12--12S--||------7-----7-----7-----7--|
-----------------------------------||*--------------------------|
--10-------------------------------||*--5-----5-----5-----5-----|
-----------------------------------||---------------------------|


  E  E  E  E  E  E  E  E     E   E  E   E  E   E  E   E   
--------------------------|-----10-----10-----10-----10--|
-----8-----8-----8-----8--|------------------------------|
--------------------------|--8------8------8------8------|
--6-----6-----6-----6-----|------------------------------|


   E   E   S  S  E  E   E   E   E       E  E  E  E  E  E  E  E   
------12--12-12-12-----10--10--10---||-----7-----7-----7-----7--|
-----------------------------------*||--------------------------|
--10-------------------------------*||--5-----5-----5-----5-----|
------------------------------------||--------------------------|


  E  E  E  E  E  E  E  E     E   E  E   E  E   E  E   E   
--------------------------|-----10-----10-----10-----10--|
-----8-----8-----8-----8--|------------------------------|
--------------------------|--8------8------8------8------|
--6-----6-----6-----6-----|------------------------------|


  E   E  E   E  E   E  E   E      E   E   E   E   E   E   E   E   
-----10-----10-----10-----10--|------12------12------12------12--|
------------------------------|----------------------------------|
--8------8------8------8------|--10------10------10------10------|
------------------------------|----------------------------------|


   E   E   E   E   E   E   E   E     W                   W                 
------12------12------12------12--|-------------------|-------------------|
----------------------------------|-------------------|-------------------|
--10------10------10------10------|-------------------|-------------------|
----------------------------------|-------------------|-------------------|


  W                   W                   W                 
-------------------|-------------------|-------------------|
-------------------|-------------------|-------------------|
-------------------|-------------------|-------------------|
-------------------|-------------------|-------------------|


  W                   W                   W                 
-------------------|-------------------|-------------------|
-------------------|-------------------|-------------------|
-------------------|-------------------|-------------------|
-------------------|-------------------|-------------------|


  E  E  E  E   E.   E  E.     E  E  E  E   E.   E  E.   
---------------------------|---------------------------|
--------------12s---0------|--------------12s---0------|
--5--5--5--5---------------|--5--5--5--5---------------|
---------------------------|---------------------------|


  E  E  E  E   E.   E  E.     E  E  E  E  E  E  E  E   
---------------------------|--------------------------|
---------------------------|--------------------------|
--5--5--5--5--12s---0------|--5--5--5--5--5--5--5--5--|
---------------------------|--------------------------|


    E  E  E  E  E  E  E  E     E  E  E  E  E  E  E  E   
|------7-----7-----7-----7--|--------------------------|
|*--------------------------|-----8-----8-----8-----8--|
|*--5-----5-----5-----5-----|--------------------------|
|---------------------------|--6-----6-----6-----6-----|


  E   E  E   E  E   E  E   E      E   E   E   E  E   E  E  E     
-----10-----10-----10-----10--|------12------12-----10-----9---||
------------------------------|-------------------------------*||
--8------8------8------8------|--10------10------8------7-----*||
------------------------------|--------------------------------||


  E  E  E  E  E  E  E  E     E  E  E  E  E  E  E  E   
-----7-----7-----7-----7--|--------------------------|
--------------------------|-----8-----8-----8-----8--|
--5-----5-----5-----5-----|--------------------------|
--------------------------|--6-----6-----6-----6-----|


  E   E  E   E  E   E  E   E     E   E  E   E  E   E  E   E   
-----10-----10-----10-----10--|-----10-----10-----10-----10--|
------------------------------|------------------------------|
--8------8------8------8------|--8------8------8------8------|
------------------------------|------------------------------|


   E   E   E   E   E   E   E   E      E   E   E   E   E   E   E   E   
------12------12------12------12--|------12------12------12------12--|
----------------------------------|----------------------------------|
--10------10------10------10------|--10------10------10------10------|
----------------------------------|----------------------------------|


   E   E   E   E   E   E   E   E      E   E   E   E   E   E   E   E   
------15------15------15------15--|------15------15------15------15--|
----------------------------------|----------------------------------|
--13------13------13------13------|--13------13------13------13------|
----------------------------------|----------------------------------|


   W                   W                   W                  
--------------------|-------------------|-------------------||
--------------------|-------------------|-------------------||
--13----------------|--L----------------|--L----------------||
--------------------|-------------------|-------------------||




Duration Legend
---------------
W - whole
H - half
Q - quarter
E - 8th
S - 16th
T - 32nd
X - 64th
. - note dotted
|-n-|  - n-tuplets


Tablature Legend
----------------
L - tied note
x - dead note
g - grace note
(n) - ghost note
> - accentuded note
NH - natural harmonic
AH - artificial harmonic
TH - tapped harmonic
SH - semi harmonic
PH - pitch harmonic
h - hammer on
p - pull off
b - bend
br - bendRelease
pb - preBend
pbr - preBendRelease
brb - bendReleaseBend
\n/ - tremolo bar dip
\n - tremolo bar dive
-/n - tremolo bar Release up
/n\ - tremolo bar inverted dip
/n - tremolo bar return
-\n - tremolo bar Release down
S - shift slide
s - legato slide
/ -  slide into from below or out of upwards
\ -  slide into from above or out of downwards
~ - vibrato
W - wide vibrato
tr - trill
TP - tremolo picking
T - tapping
S - slap
P - pop
< - fade in
^ - brush up
v - brush down





Calificar esta versión:
Aviso: Este fichero es trabajo propio de su transcriptor y representa su interpretación personal de la canción. El material contenido en esta página es para exclusivo uso privado, por lo que se prohibe su reproducción o retransmisión, así como su uso para fines comerciales.
Más versiones de An Honest Mistake, The Bravery
An Honest Mistake
acordes
An Honest Mistake (ver 2)
acordes
An Honest Mistake
tablatura
An Honest Mistake
bajo
An Honest Mistake (ver 2)
bajo
Descubre más canciones de The Bravery