Equivocada, Thalia (tablatura)

Autor: Anónimo | 16834 visualizaciones



Ke onda a todos!!! aki les mando una rolita de thalia ke para mi en
lo especial se oye muy bien.
Espero y les agrade.:P

NOTA: El INTRO esta algo raro debido a ke es en piano pero
yo trate lo mejor y lo ise lo mas preciso posible:D

INTRO:

  Dm               G         F             G
e-1h0------------------------1h0-------------
B-3----1-----1-3-3-0-----1-3-1--1----1-3---3-
G-2------2-2-------0--0-2----2----2-2------0-
D-0----------------0---------3-------------0-
A------------------2---------3-------------2-
E------------------3---------1-------------3-

O aqui lo pongo de manera simple:

  Dm                        G              F                  G
e-13h12-----------------------------------13h12------------------
B------13-----13-15-15--10h12-------13-15-------13------13-15-15-
G--------14-14-----------------12-14---------------14-14---------
D----------------------------------------------------------------
A----------------------------------------------------------------
E----------------------------------------------------------------

 C
Sé que me enamoré

         G
Yo caí perdida sin conocer

        Dm
Que al salir el sol

       F       G
Se te va el amor


  C
Duele reconocer

          G
Duele equivocarse y duele saber

         Dm
Que sin ti es mejor

          F          G
Aunque al principio no


 F
Me perdí

  C
Apenas te vi

 Dm
Siempre me hiciste

 F        G
como quisiste

CORO:

        C
Porque siempre estuve equivocada

G
  Y no lo quise ver

        Dm
Porque yo por ti la vida daba

        F              G
Porque todo lo que empieza acaba


        C
Porque nunca tuve más razones

G
 para estar sin él

        Dm
Porque cuesta tomar decisiones

        F              G
Porque se que va a doler

                 F
Y hoy pude entender

              C
Que a esta mujer

 Dm                F       G
Siempre la hiciste inmensamente triste


INTERMEDIO: TOCA EL INTRO


 C
Hoy que no puedo más

         G
Sigo decidida a dejarte atrás

        Dm
Por tu desamor

    F        G
Lastimada estoy


 F
Me perdí

  C
Apenas te vi

 Dm                 F        G
Siempre me hiciste como quisiste



CORO:

        C
Porque siempre estuve equivocada

G
  Y no lo quise ver

        Dm
Porque yo por ti la vida daba

        F              G
Porque todo lo que empieza acaba


        C
Porque nunca tuve más razones

G
 para estar sin él

        Dm
Porque cuesta tomar decisiones

        F              G
Porque se que va a doler

                 F
Y hoy pude entender

              C
Que a esta mujer

 Dm                F       G
Siempre la hiciste inmensamente triste

      F        C
Si, así me sentía

 G          C      Am
No sé por qué seguía

    Dm
Apostándole

     F      G
 mi vida a él



CORO:

        C
Porque siempre estuve equivocada

G
  Y no lo quise ver

        Dm
Porque yo por ti la vida daba

        F              G
Porque todo lo que empieza acaba


        C
Porque nunca tuve más razones

G
 para estar sin él

        Dm
Porque cuesta tomar decisiones

        F              G
Porque se que va a doler

                 F
Y hoy pude entender

              C
Que a esta mujer

 Dm                F       G
Siempre la hiciste inmensamente triste

FINAL:

  Dm               G         F             G
e-1h0------------------------1h0-------------
B-3----1-----1-3-3-0-----1-3-1--1----1-3---3-
G-2------2-2-------0--0-2----2----2-2------0-
D-0----------------0---------3-------------0-
A------------------2---------3-------------2-
E------------------3---------1-------------3-

O Asi:

  Dm                        G              F                  G
e-13h12-----------------------------------13h12------------------
B------13-----13-15-15--10h12-------13-15-------13------13-15-15-
G--------14-14-----------------12-14---------------14-14---------
D----------------------------------------------------------------
A----------------------------------------------------------------
E----------------------------------------------------------------





Calificar esta versión:
Aviso: Este fichero es trabajo propio de su transcriptor y representa su interpretación personal de la canción. El material contenido en esta página es para exclusivo uso privado, por lo que se prohibe su reproducción o retransmisión, así como su uso para fines comerciales.
Más versiones de Equivocada, Thalia
Equivocada
acordes
Equivocada
tablatura
Descubre más canciones de Thalia