Love Song, Tesla (tablatura) (ver 4)

Autor: rock1820 | 22984 visualizaciones

|-3-3p2p0----------14-14-14p12p10--|-2--3--3p2p0-----------------------|
|----------7s2-2-2-----------------|--------------2--3--5--3--3--0-2-3-| repite
|----------------------------------|-------------------------4-4-------| esto
|-0--------------------------------|-0----------------------4----------| <--
|----------------------------------|--------------0--------2-----------|
|----------------------------------|-----------------------------3-----|
  D                                  D            A        Bmin  G


|-2--3--3p2p0---------------0------------------------2------------------|
|--------------2--3--5--3-2---3-----3-----2-----2----3-------0-2-3---2-3|
|-------------------------------0-----0---2-2-----2--2-2-4-2-------2----|
|-0-------------------------------0-------2---2------0-4-5-4------------|
|--------------0--------2-0---------------0-----------------------------|
|---------------------------4-3-----------------------------------------|

|--------------|                        |--14-12-10---------------------|
|---2-3-3s5-3-2|                        |-----------14-12-10------------|
|-0------------|                        |--------------------12-10-9----|
|--------------|                        |----------------------------12-|
|--------------|                        |-------------------------------|
|--------------|                        |-------------------------------|

        E|--------------------------------------------------------------|
        B|--------------------------------------------------------------|
        G|-4p2p0--4p2p0--4p2p0--4p2p0-4p2p0------------4p2p0------------|
        D|---------------------------------4p2p0------------4p2p0-------|
        A|---------------------------------------4p2p0-----------4p2p0--|
        E|--------------------------------------------------------------|



   |---------2--3-5-|
   |-0-2-3---3--5-7-|  
   |---------2--4-7-|    
   |---------0------|
   |----------------|
   |-3--------------|

E|--------------7-7-7-5-3-5---7-7-7-5-3-2---7-7-7-5-3-5---7-7-7-5-3-|
B|--------------8-8-8-7-5-7---8-8-8-7-5-3---8-8-8-7-5-7---8-8-8-7-5-|
G|------------------------------------------------------------------|
D|--0-0-0-0-0-0-----------------------------------------------------|
A|------------------------------------------------------------------|
E|------------------------------------------------------------------|

Comentarios del colaborador: bueno aca esta el intro de love song es muy facil. cualquier duda o comentario me lo pueden hacer al correo: alexander_51818@hotmail.com .

Calificar esta versión:
Aviso: Este fichero es trabajo propio de su transcriptor y representa su interpretación personal de la canción. El material contenido en esta página es para exclusivo uso privado, por lo que se prohibe su reproducción o retransmisión, así como su uso para fines comerciales.
Más versiones de Love Song, Tesla
Love Song
acordes
Love Song
tablatura
Love Song (ver 2)
tablatura
Love Song (ver 3)
tablatura
Love Song (ver 4)
tablatura
Descubre más canciones de Tesla