Love Song, Tesla (tablatura) (ver 3)

Autor: viktorslash | 42648 visualizaciones

POR FAVOR NOTA #---------------------------------- ------------- --------------------# 
# Este fichero es trabajo propio del autor y representa su interpretación de la # 
# canción. Sólo puede utilizar este archivo para el estudio privado, las becas o la investigación. # 
#------------------------------------------------- -----------------------------## 
 <01GW8PS5D6729D5A2K@VEGA.SELU.EDU> 
Organización: Universidad de Luisiana del sudeste 
X-VMS-A:% EN "jamesb@nevada.edu" 
MIME-Version: 1.0 
Content-Type: text / plain; CHARSET = US-ASCII 
Content-Transfer-Encoding: 7bit 

Ok Aquí va la música de Love Song. Perdón por el anterior incorrecta 
anuncio que no sé en qué estaba pensando. He aquí las correcciones en su totalidad. 
El solo es similar, pero sólo cerca de sonido lo suficientemente exacta superior. Voy a dividir el 
canción en 6 secciones 1) Acústica Intro 2) Intro eléctrica 3) 1 ª y 2 Verso 
4) Chorus 5) solo 6) Outro. Aquí voy otra vez! 
                           Love Song por Tesla 

Sólo una pequeña nota aquí. No estoy seguro de lo que la parte de guitarra en la segunda 
la introducción, pero estoy bastante seguro de la primera guitarra en algunos puntos estoy 
no estoy seguro exactamente qué orden se recoge las notas de los acordes, pero se debe 
correcta. Cuando el intro (tipo clásico) introducción es una y la otra
guitarra entra, que se juega en una cadena de doce años. 

SECCIÓN I 
|-3-3p2p0 ---------- 14-14-14p12p10 - |-2 - 3 - 3p2p0 ------------------- ----| 
|---------- 7s2-2-2 ----------------- |-------------- 2 - -3 a 5 - 3 - 3 - 0-2-3 - | repita 
|----------------------------------|-------------- ----------- 4-4 -------| este 
| -0 --------------------------------|- 0 ------------ ---------- 4 ----------| <- 
|----------------------------------|-------------- 0 -------- 2 -----------| 
|----------------------------------|-------------- --------------- 3 -----| 
  PDD bmin G 

Media Vuelta 
|-2 - 3 - 0 ------------------------ --------------- 3p2p0 2 ------------------| 
|-------------- 2 - 3 - 5 - 3-2 --- 3 ----- 3 ----- 2 ----- 2 - --- 3 --- ------- 0-2-3 2-3 | 
|------------------------------- 0 ----- 0 --- 2-2 ----- 2 - 2-2-4-2 ------- 2 ----| 
| -0 ------------------------------- 0 ------- 2 --- 2 --- --- 0-4-5-4 ------------| 
|-------------- 0 -------- 2-0 --------------- 0 ------- ----------------------| 
|--------------------------- 4-3 ------------------- ----------------------| 

|--------------| Este relleno | ----> - 14-12-10 ------------------- - | 
| --- 2-3-3s5-3-2 | va con el |----------- 14-12-10 ------------| 
| -0 ------------| Media Vuelta |-------------------- 12-10-9 ----| 
|--------------| ARRIBA |---------------------------- 12 - | 
|--------------| |-------------------------------| 
|--------------| |-------------------------------| 

Llena -> E |-------------------------------------------- ------------------| 
        B |------------------------------------------------ --------------| 
        G |-4p2p0 - 4p2p0 - 4p2p0 - 4p2p0-4p2p0 ------------ ------------ 4p2p0 | 
        D |--------------------------------- 4p2p0 ------------ 4p2p0- ------| 
        Un |--------------------------------------- 4p2p0 -------- --- 4p2p0 - | 
        E |------------------------------------------------ --------------| 

Diferentes horas 
Acorde a partir de G 
   |--------- 2 - 3-5 - | 
   | -0-2-3 --- 3 - 5-7 - | Luego se dirige a la parte principal de la canción. 
   |--------- 2 - 4-7 - | que se describe a continuación. 
   ------| |--------- 0 
   |----------------| 
   | -3 --------------| 
SECCIÓN II 
E |-------------- 7-7-7-5-3-5 --- 7-7-7-5-3-2 --- 7-7-7 - 5-3-5 --- 7-7-7-5-3 - | 
B |-------------- 8-8-8-7-5-7 --- 8-8-8-7-5-3 --- 8-8-8 - 7-5-7 --- 8-8-8-7-5 - | 
G |------------------------------------------------ ------------------| 
D | - 0-0-0-0-0-0 ----------------------------------- ------------------| 
Un |------------------------------------------------ ------------------| 
E |------------------------------------------------ ------------------| 

Ahora hay sólo acordes sobre todo cuando se pone a cantar y sólo escoger a través de 
los acordes. Voy a dar cualquier relleno que puedo recordar. 

 SECCIÓN III 
 Así que crees que todo ha terminado, Di que el amor finalmente llegó a la final 
 Emin Emin bmin bmin A 
 Cada vez que llame a la noche o de día voy a estar allí para usted Si usted necesita un amigo 
 Amin G bmin D 
(Cool Llene aquí) 
 El su ir a tomar un poco de tiempo, etc 
 (Mismos acordes aquí que el anterior con riff intro al final) 
 Aquí está el fresco relleno 
 E |-2P3P2 -------------- | 
 B |------- 3P5P3 -------- | 
 G |------------- 2P4P2 - | -> o algo así 
 D |--------------------| 
 |--------------------| Un 
 E |--------------------| 
     D 

SECCIÓN IV 
 El amor es todo a tu alrededor, El amor es llamando a su puerta 
 GDGGDGDGD 
 Esperando por ti es este amor hecho sólo para dos 
 Emin C 
 Mantener un corazón abierto y encontrarás amor otra vez ya lo sé. (Repetir esto otra vez) 
  D Dsus2 D Dsus2 D Dsus2 
 SECCIÓN V (SOLO) b = curva completa (bb = 1 1/2bend) (h = martillo) (p = pull off) / = slide 
                 bu = Doblar hacia arriba y hacia abajo (bd = ya se inclinó a medida que la huelga) 
E |------------------------------- 12----------- ----- --------------------| 
B |-b15 \ - b15-b15-12h15p12 ----- ---- 12 ------------------------- 15-12 -----| 
G |------------------------- b14 ------------ 14-b14-12 ----- ---------------| 
D |------------------------------------------------ - 14 ------ 5-b7-7-5-7-| 
Un |------------------------------------------------ -------/7------------ | 
E |------------------------------------------------ ---------------------| 

E |----------------------------------------------- 15 --------------------| 
B |------------------- 13 - 12----------- -------------- 15----------- ------| 
G |------------ 5-4 ----------- 14 - 14P16P14-12 - B14 ------- ---- 12 bd14p12 --- | 
D | -7/9-7P9-7------7--------------------------------- ----------- 14 ------| 
Un |------------------------------------------------ ---------------------| 
E |------------------------------------------------ ---------------------| 

E |------------------------------------------------ ---------------------| 
B-7 |---------------------------------- 9-7 ------ b15 - b15-b15-12-15-12 --- | 
G | 12-12-12 \ 11-11-11-11 \ 9-9-9-9 \ ----------------------- 7-7H9 ------------| 
D |------------------------------------------------ ---------------------| 
Un |------------------------------------------------ ---------------------| 
E |------------------------------------------------ ---------------------| 

E |------- 12 ------------------------- B17-B17-17p15-17p15-17 ------ -------| 
B |---- 12 ---- 15-12 --------------- -------------------- b15 ------ 13-12 -----| 
G | b14 ------------- 14-b14-12 ----------------------------- ----------- 14 - | 
D |-------------------------- 14----------- ---------- --------------------| 
Un |------------------------------------------------ ---------------------| 
E |------------------------------------------------ ---------------------| 

E |------------------------------------- 15---------- --------------------| 
B | 13-12 ---- 13-12----------- --------------- 15----------- ----------------| 
G |------ 14 ------- 14 - 14p16p14 - 12 --- 14-b14 ------ ---- 14p12 12 - 12-12 ---- - | 
D |------------------------------------------------ ---- 14----------- ----| 
Un |------------------------------------------------ ---------------------| 
E |------------------------------------------------ ---------------------| 

E |------------------------------------------------ -------------- 10 -----| 
B |----------------------------- 7p9-7 ---------------- - 7 ------ ---- 10-b13 | 
G | 12 \ 11-11-11-11 \ 9-9-9-9 \ 7-7p9--------------------7h9----/11 -----------| 
D |------------------------------------- 5-bu7-5-7/9-- -------------------| 
Un |------------------------------------------------ ---------------------| 
E |------------------------------------------------ ---------------------| 

E |-20-20-20-b20-b20-b20 ------------------------------------ ------------| 
B |------------------------------------------------ ---------------------| 
G |------------------------------------------------ ---------------------| 
D |------------------------------------------------ ---------------------| 
Una |------------------------------------------------ ---------------------| 
E |------------------------------------------------ ---------------------| 

 SECCIÓN VI 
 El amor está en el camino y mantener abierto el corazón abierto bien los ojos 
  G D C D Emin 
 El amor encontrará el amor de una manera querida "va a encontrar una manera de encontrar su camino de regreso 
  GD Emin DC 
 en su caso. (repetir hasta el final, etc) 
       El fin absoluto es así. 
 Yo sé hacer, hacer, hacer, hacer, hacer, hacer 
   GDGD (Repetir una canción varias veces, hasta el GI 
Cree que) 
Bueno, eso debería ser la canción entera.
Calificar esta versión:
Aviso: Este fichero es trabajo propio de su transcriptor y representa su interpretación personal de la canción. El material contenido en esta página es para exclusivo uso privado, por lo que se prohibe su reproducción o retransmisión, así como su uso para fines comerciales.
Más versiones de Love Song, Tesla
Love Song
acordes
Love Song
tablatura
Love Song (ver 2)
tablatura
Love Song (ver 3)
tablatura
Love Song (ver 4)
tablatura
Descubre más canciones de Tesla