Te Juro Que Te Amo, Terrícolas (tablatura) (ver 2)

Autor: Anónimo | 40449 visualizaciones

Esta es una versión en el tono original que es 'Re', (esta mucho mejor que la que tenían) 
y con los arreglos adaptados a una sola guitarra. Si no pueden tocar
os los rasgueos busquen quien toque el acompañamiento y toquen solo el requinto.

El ritmo pude ser el que sigue,  al cual yo llamo “Balada en ocho tiempos”

e------|--^-A----|-|-^-|--|
B--^---|--|-A----|-|-|-|--|
G--|---v--|-A----v-v-|-v--|
D--|-----------^-----|----|
A--|-----------|-----|----|
E--|-----------|----------|

INTRO (0:00)

   D             E                      C#                    F# 
e-----2--0----|--------^-A-----------|--------------------|-----|--^-A------------|
B--3--3--3--3-|--2--0--|-A-----2--3--|--5----3----2----0--|-----|--|-A-----0-2-3--|
G-----------2-|--2-----|-A-----------|--------------------|--2--V--|-A------------|
D--0----------|-------------^--------|--------------------|-------------^---------|
A-------------|-----2-------|--------|--4----2----1-------|-------------|---------|
E-------------|-------------|--------|--------------------|--2----------|---------|

   A
e-----|--^-A----|-|-^-|--|--------0----------|
B--2--|--|-A----|-|-|-|--|--2--3-----3--2----|
G-----v--|-A----v-v-|-v--|-------------------|
D-------------^-----|----|-------------------|
A--0----------|-----|----|--0----------------|
E-------------|----------|-------------------|


Los coros de la voz aguda femenil los pueden improvisar asi:

   D
e-----|--^-A----|-|------0--2--|----------|-^-|-----|
B-----|--|-A----|-|---3--------|--5---0---|-|-|-----|
G--^--v--|-A----v-v------------|------2---v-|-v-----|
D--|----------^-------0--------|--0-----------------|
A--|----------|----------------|--------------------|
E--|----------|----------------|--------------------|
…tú te vas…

   Bm7
e-----|--^-A----|---------2---|--3--5------|-^-|----|
B-----|--|-A----|---3--5------|------------|-|-|----|
G--^--v--|-A----v-------------|--------4---v-|-|----|
D--|----------^-----4---------|-----4--4------------|
A--|----------|---------------|---------------------|
E--|----------|---------------|---------------------|
…partiras…


Riff 1 (0:51)

   A
e-----------|-^-|---|
B--2--3--2--|-|-|---|
G-----------v-|-v---|
D-------------------|
A--0-----0----------|
E-------------------|

Riff 2 (2:04)

    A
e|-----------------|
B|--2--2--2--0-----|
G|--------------2--|
D|--------------2--|
A|--0--------------|
E|-----------------|

Riff 3 (2:10)

    A
e|-----------------|
B|--2--2--2--0--2--|
G|-----------------|
D|-----------------|
A|--0-----------0--|
E|-----------------|


Y eso es todo,  con eso se va a oír bastante bien.

Saludos a Tepecoa

Ah! Y al Bachillerato Vasconcelos, de Iguala
Calificar esta versión:
Aviso: Este fichero es trabajo propio de su transcriptor y representa su interpretación personal de la canción. El material contenido en esta página es para exclusivo uso privado, por lo que se prohibe su reproducción o retransmisión, así como su uso para fines comerciales.
Más versiones de Te Juro Que Te Amo, Terrícolas
Te Juro Que Te Amo
acordes
Te Juro Que Te Amo
tablatura
Te Juro Que Te Amo (ver 2)
tablatura
Descubre más canciones de Terrícolas