Te Juro Que Te Amo, Terrícolas (tablatura)

Autor: Anónimo | 21169 visualizaciones

Terrícolas
Te Juro Que Te Amo 

   C              D7          Bm             Em           D         D7                  Te juro que...
e-----12-10-----------------10-10-----------------------|------------------------------
B--13-------13-12-10--12-13-------12-10-----10-12-13-10-|--10h12-13-15-13-12-10--*12~~-
G-(12)-----------(7)---------------------12----------(7)|------------------------*12~~-
D-(14)--------------------------------------------------|------------------------*12~~-
A-------------------------------------------------------|------------------------------
E-------------------------------------------------------|------------------------------
*Con organo

    G
Te juro que te amo
Afuera esta lloviendo
Por dentro estoy temblando
        C
Porque tu te vas
(Porque yo me ire)
            Am
Muy pronto partiras
(Muy pronto partire)
     C
Un tren desconocido
  D7        G
Pronto tomaras

Riff 1
e-----------------------
B------------(7)--------
G--7-9--9/11-(11)--7----
D-----------------------
A-----------------------
E-----------------------
    G                 Riff 1
Mo queda mucho tiempo
Te juro que te amo
Ahora estas llorando
        C
Mas porque llorar
(Mas porque que llorar)
              Am
Si es que tu volveras
(Si es que yo volvere)
   C
Y todo aquello nuestro
D7         G    G7
Tu recordaras

C          D7
Y mi sentimiento
      Bm         Em
No lo cambiare jamas
       Bm            Em
Aunque sufra este tormento
           D-D7
Me quedas tu...
C          D7
Y mi sentimiento
      Bm         Em
No lo cambiare jamas
       Bm           Em
Aunque sufra este momento
           D-D7
Me quedas tu

Riff 2             Riff 3            Riff 4
e|-7-7-7----7--|-------------------|-5-7-8--10-5--------
B|-8-8-8-10-8--|--10-10-10-12-10---|-7-8-10-10-7--------
G|-------11----|--11-11-11-12-11---|--------------------
D|-------------|-------------------|--------------------
A|-------------|-------------------|--------------------
E|-------------|-------------------|--------------------
Riff2       G
       Te juro que te amo
Riff3
       Tu nombre estoy gritando
       El tren esta partiendo
         C
No me escucharas
Riff 4
(No te escuchare)
          Am
Que falta tu me haras
(Que falta yo te hare)
    C                    D7
Contigo se va el mundo entero
         G   G7
Y tu te vas

C          D7
Y mi sentimiento
      Bm         Em
No lo cambiare jamas
       Bm            Em
Aunque sufra este tormento
           D-D7
Me quedas tu...
C          D7
Y mi sentimiento
      Bm         Em
No lo cambiare jamas
       Bm            Em
Aunque sufra este tormento
           D-D7
Me quedas tu

C          D7
Y mi sentimiento
      Bm         Em
No lo cambiare jamas
       Bm            Em
Aunque sufra este tormento
           D-D7        G
Me quedas tu...  u-u-u-uh
Calificar esta versión:
Aviso: Este fichero es trabajo propio de su transcriptor y representa su interpretación personal de la canción. El material contenido en esta página es para exclusivo uso privado, por lo que se prohibe su reproducción o retransmisión, así como su uso para fines comerciales.
Más versiones de Te Juro Que Te Amo, Terrícolas
Te Juro Que Te Amo
acordes
Te Juro Que Te Amo
tablatura
Te Juro Que Te Amo (ver 2)
tablatura
Descubre más canciones de Terrícolas