Te Amaré, Tercer Mundo (tablatura) (ver 2)

Autor: Anónimo | 43808 visualizaciones



Hola a todos a quienes les gusta lo bueno,
esta es una canción magnífica
tóquenla con sentimiento,
está muy bien sacada y a mi me parece una excelente versión,
 y cualquier sugerencia o si necesitan algún favor
escríbanme panas mi email es shanta15salle@hotmail.com,
 un saludo muy especial para el amor de mi vida
y esta canción va para ella, es Alejandra Orbe,
ella es mi mejor amiga, mi enamorada, mi complemento
en verdad le adoro y espero que le guste...
 y para todos quienes me conocen y a los que consulten
esta canción...
bueno aquí les va:
INTRO

    G                     C
E|-------------------3------0-------0--------------|
B|---0-----0---3---3------------0-------0----------|
G|-------0---0---0------------0---0---0---0--------|
D|-------------------------------------------------|
A|-------------3-----3------3----------------------|
e|---3---------------------------------------------|
    G                     C
E|-------------------3------0-------0--------------|
B|---0-----0---3---3------------0-------0----------|
G|-------0---0---0------------0---0---0---0--------|
D|-------------------------------------------------|
A|-------------3-----3------3----------------------|
e|---3---------------------------------------------|

1)

G       G          C
Para que voy a llamarte
                  G
si no vas a contestar
         G        C
Para que voy a buscarte
                      D             B 
si otra vez no vas a estar habras salido
     C      Cm
talvez a intentar
       G            C 
encontrar un nuevo amor
      G       C
tratar de conseguir
           D
alguien mejor que yo....
2)
 G        G           C
Para que tratar de hablarte
                  G
si no vas a escuchar
           G          C
para que voy a escribirte
                   D            B 
mis palabras para ti son como hojas
       C         Cm
que el viento enterrerá
    G       C
junto a mi corazón
    G    C
partido de dolor
          D
por no tener tu amor


Pre Coro:
        C                     D
Pero ahora me tienes que escuchar
       Am       C             D
Ahora que me atrevo a confesar....


Coro:
          G               D
Simpre te amé y siempre te amare
                 Am
no importa las paredes que se han levantado
  C          D                G
tengo que quedarme aqui a tu lado
                  D
Te quiero y te querré
                   Am
si todo el tiempo que estuvimos tu y yo juntos
  C
no puede terminar en un segundo
     Am                               D
mi amor por ti es mas fuerte que el adios
                  G C  G  C
te amo y te amaré.....


3)
G      G+              C
Para que inventar poesias
                    G 
que no te interesa oir
        G+            C
porque trato de seguirte
                     D          B 
si no puedo dar un paso en el camino
    C           Cm
tratando de llegar
G          C
a tu corazón
 G        C
para pedir perdón
            D
por no cuidarte...

(Pre coro;hacemos un juego de notas)
son: G E C D
Y subimos un tono al coro.

A  E  Bm  D   E.......


           A                  E
Siempre te amé y siempre te amare
                  Bm
no importa las paredes que se han levantado
 D             E               A
tengo que quedarme aqui a tu lado
                 E
Te quiero y te querre
                  Bm
porque este tiempo que estuvimos tu y yo juntos
     Dm
no puede terminar en un segundo
     D                                  E
mi amor por ti es mas fuerte que el adiós
                     A
Te Amo y Te Amareeee.....


Outro:
     A                     E
E|------------0-----------------------0----------|
B|---2----------------------0-----0-------0------|
G|-------2--------2-------------1---1---1----1---|
D|-----2---2----2---2----------------------------|
A|-----------------------------------------------|
e|---0----------------------0--------------------|

Ya saben panas arriba la música porque es pasión,
 y arriba el talento ecutoriano...
su amigo ShAnT@.

bye...





Calificar esta versión:
Aviso: Este fichero es trabajo propio de su transcriptor y representa su interpretación personal de la canción. El material contenido en esta página es para exclusivo uso privado, por lo que se prohibe su reproducción o retransmisión, así como su uso para fines comerciales.
Más versiones de Te Amaré, Tercer Mundo
Te Amaré
acordes
Te Amaré (ver 2)
acordes
Te Amaré
tablatura
Te Amaré (ver 2)
tablatura
Te Amaré (ver 3)
tablatura
Descubre más canciones de Tercer Mundo