Te Amaré, Tercer Mundo (tablatura)

Autor: Anónimo | 17630 visualizaciones



Bueno...esta es una gran cancion de Tercer Mundo y para mi esta
bien...

INTRO

 G                            C
------------------------------------------------------------
-0-----0-------3-----3----5---5-------5-------1h3h1--1--0---
------------------0---------------0-------0-----------------
----0------0------------------------------------------------
------------------------------3-------3---------------------
-3-----3-------3-----3--------------------------------------

 G                           C

----------------------------------------------3----
-0-----0-------3-----3---5---5--------5------------
------------------0--------------0--------0--------
----0------0---------------------------------------
-----------------------------3--------3-------3----
-3-----3-------3-----3-----------------------------



           Para que voy a llamarte, si no vas a contestar
(Riff 1)

 G                            C
--------------------------------------------------------------------
-0-----0-------3-----3----5---5-------5--------5-------5------------
------------------0---------------0-------0--------0--------0-------
----0------0--------------------------------------------------------
------------------------------3-------3--------3-------3------------
-3-----3-------3-----3----------------------------------------------

           para que voy a buscarte,si otra vez no vas a es...
(Riff 1)
 G                            C
--------------------------------------------------------------------
-0-----0-------3-----3----5---5-------5--------5-------5------------
------------------0---------------0-------0--------0--------0-------
----0------0--------------------------------------------------------
------------------------------3-------3--------3-------3------------
-3-----3-------3-----3----------------------------------------------


  ...tar, o habras salido,      talvez a intentar
(Riff 2)
 D                              G               C
-3-----3-----3-------3----------3------3--------0-------0---
------------------------------------------------------------
----2-----2------2---------0-------0------0---------0-------
-0-----0-----0-------0--------------------------------------
------------------------------------------------3-------3---
--------------------------------3------3--------------------


 encontrar un nuevo amor,
(Riff 3)
        G             C
--------3-----3-------0-----0----/
---------------------------------/
-----------0------0------0-----0-/
---------------------------------/
----------------------3-----3----/
--------3-----3------------------/

tratar de conseguir alguien mejor que yo
     G             C             D
-----3-----3-------3-----3-------3-----3------3---
--------------------------------------------------
--------0------0------0------0------2------2------
---------------------------------0-----0------0---
-------------------3-----3------------------------
-----3-----3--------------------------------------

(Riff 1)
Para que tratar de hablarte, si no me vas a escuchar
(Riff 1)
Para que voy a escribirte,mis palabras para ti
(Riff 2)
son como hojas, que el viento enterrara
(Riff 3)
junto a mi corazón partido de dolor por no tener tu amor.

      DO                   RE
Pero ahora me tienes q escuchar
  LAm                      RE
ahora que me atrevo a confesar

*CORO*
              SOL             RE
Siempre te ame y siempre te amare
                 LAm
no importan las paredes que se han
          DO                  RE
levantado tengo que quedarme aquí
       SOL
 a tu lado.
     SOL           RE
Te quiero y te querré!.
                   LAm
Si todo  el tiempo que estuvimos tu
            DO
y yo juntos no puede terminar en un segundo
LAm                                  RE
mi amor por ti es más fuerte que el adiós

Te amo y te amare

*INTRO*

(Riff 1)
Para que inventar poesías,que no te interesarían
(Riff 1)
Por que trato de seguirte si no puedo dar un
(Riff 2)
paso en el camino tratando de llegar..
(Riff 3)
A tu corazón, para pedir perdón por no cuidarte......

       DO                       RE
Pero ahora me tienes que escuchar,
LAm                        RE
ahora que me atrevo a confesar ...

*CORO* (X2)

Bueno..eso es todo...me parece que es lo mas parecido a la version
original.
QUiero mandarle un saludo a Jessy R. aunque ahora estemos distantes
te voy a querer por siempre....

Andres Alulema Moncayo
Riobamba
UESFN





Calificar esta versión:
Aviso: Este fichero es trabajo propio de su transcriptor y representa su interpretación personal de la canción. El material contenido en esta página es para exclusivo uso privado, por lo que se prohibe su reproducción o retransmisión, así como su uso para fines comerciales.
Más versiones de Te Amaré, Tercer Mundo
Te Amaré
acordes
Te Amaré (ver 2)
acordes
Te Amaré
tablatura
Te Amaré (ver 2)
tablatura
Te Amaré (ver 3)
tablatura
Descubre más canciones de Tercer Mundo