Walking Disaster, Sum 41 (tablatura)

Autor: Iñigo17 | 41151 visualizaciones



Intro: 
e---------7-7---7-7-7--------------7-7----7-7-7---- 
B-0-0-0-0----0--------0--000-0-0-0-----0--------0-- 

e------------------ 
B------------------ 
G--4--------------- 
D--4---4---6---2--- 
A--2---4---6---2--- 
E------2---4---0---  X2 

e------------------ 
B------------------ 
G----------4------- 
D--6---2---4---4--- 
A--6---2---2---4--- 
E--4---0-------2---  X2 

e--2222-2---2222-2----- 
B--4444---4-4444---4--- 
G--4444-----4444------- 
D--4444-----4444------- 
A--2222-----2222------- 
E--2222-----2222------- X2 

e-------------------------------------------- 
B-------------------------------------------- 
G-11-   -13-    -15-    -16-    -16--------- 
D-11    -13-    -15-    -16-    -16X-------- 
A-9- X8 -11- X8 -13- X8 -14- X8 -14X-------- 
E-----------------------------------X-------- 


Pre-Chorus: 
e------------------------------- 
B------------------------------- 
G------------------------------- 
D--2--2--6--4------------------- 
A--2--2--6--4------------------- 
E--0--0--4--2------------------- X4 




Chorus: 
e--------------------------------------------------------------------| 
B--------------------------------------------------------------------| 
G-4-4-4-4-4-4-4-4----------------------------------------------------| 
D-4-4-4-4-4-4-4-4--4-4-4-4-4-4-4-4--6-6-6-6-6-6-6-6--2-2-2-2-2-2-2-2-| 
A-2-2-2-2-2-2-2-2--4-4-4-4-4-4-4-4--6-6-6-6-6-6-6-6-2-2-2-2-2-2-2-2-| 
E------------------2-2-2-2-2-2-2-2--4-4-4-4-4-4-4-4-0-0-0-0-0-0-0-0-| 





Comentarios del colaborador: E-chords.com

Calificar esta versión:
Aviso: Este fichero es trabajo propio de su transcriptor y representa su interpretación personal de la canción. El material contenido en esta página es para exclusivo uso privado, por lo que se prohibe su reproducción o retransmisión, así como su uso para fines comerciales.
Más versiones de Walking Disaster, Sum 41
Walking Disaster
tablatura
Walking Disaster
bajo
Descubre más canciones de Sum 41