Walking Disaster, Sum 41 (bajo)

Autor: ozmos_roses | 44875 visualizaciones

esta va para una amiga qe qiso qe se la subiera en bajo
saludos a puebla para info: edmundo_loko@hotmail.com
this is my first tab so plz rate me n my m8 figured it so
this is how i think it goes 



INTRO prt 1"i havent been home for a week"
G|----------------------------------------------| ~ = let ring
D|----------------------------------------------|
A|--2~------------------------------------------|
E|-----2~--4~--0~-------------------------------|x2

INTRO prt 2"the city's buried in defeat"
 |----------------------------------------------------|
 |----------------------------------------------------|
 |------------2~--------------------------------------|
 |---4~---0~-----2~-----------------------------------|x2

 As i fall
 |---------------|
 |---------------|
 |---------------|
 |4~-2~-0~-------|

THEN

 |------------------------------------|
 |------------------------------------|
 |22222222----------------------------|     
 |---------44444444-22222222-00000000-|x1

  verse prt 1

 |----------------------|
 |----------------------|
 |--2222----------------|
 |-------2222-4444-0000-|x1

 then it changes to
   verse prt 2
 |---------------------------------------|
 |---------------------------------------|
 |--22222222-----------------------------|
 |-----------22222222-44444444-00000000--|


   PRE-CHORUS
 |----------------------|
 |----------------------|
 |-----------2222-------|
 |--00000000------2222--|

  CHORUS

 |--------------------------|
 |--------------------------|
 |-2222---------------------|
 |------2222-4444-0000------|x2

 REPEAT 
verse prt 2 
pre-chorus
chorus 

   INTERLUDE

 |-----------------|
 |-----------------|
 |-----------------|
 |-4~-2~-0~--------|x8


 then REPEAT

  pre-chorus
  chorus
  finish with intro prt. 1 till end
Calificar esta versión:
Aviso: Este fichero es trabajo propio de su transcriptor y representa su interpretación personal de la canción. El material contenido en esta página es para exclusivo uso privado, por lo que se prohibe su reproducción o retransmisión, así como su uso para fines comerciales.
Más versiones de Walking Disaster, Sum 41
Walking Disaster
tablatura
Walking Disaster
bajo
Descubre más canciones de Sum 41