Underclass Hero, Sum 41 (tablatura) (ver 2)

Autor: pipepunk | 41232 visualizaciones

es toda la cancion completa



GUITAR 1
|------------------------------------------------------------------|
|------------------------------------------------------------------|
|------------------------------------------------------------------|  X4
|--------6-7-6---------------6-7-6------------6-7-6----------------|
|----7-------------------7-----------------7------------7----9-----|
|-00---------------77-----------------55-------------55---77-------|


Gtr.2
e|-------------------------------------|
B|-------------------------------------|
G|-99-9999--------------9999-----------| 2x
D|-99-xxxx--99-9999--77-xxxx--77-7-9---|
A|-77-7777--99-xxxx--77-7777--77-7-9---|
E|----------77-7777--55-------55-5-7---|

Verse
GUITAR 1
|-----------------------------------------------------------|
|-----------------------------------------------------------|
|-----------------------------------------------------------|
|------6---------------6-------------6----------------------| X2
|----7---7-----------7---7---------7---7---------7----9-----|
|-00-------------77-----------99-------------55---77--------|

Pre Chorus
GUITAR 1
|-----------------------------------------------------------|
|-----------------------------------------------------------|
|-----------------------------------------------------------|
|--------------6-7-6----------------------------------------|
|-------7---7--------9-7-------11---7--7------9---7----9----| X2
|----000---0-0------------9-9-9----5--5----7-7---5--7-7-----|

GUITAR 2
|-----------------------------------------------------------|
|-----------------------------------------------------------|
|-----------------------------------------------------------|
|-------------44444--6666--2-2-4444-------------------------| X2
|-2222-2---4--22222--4444--0-0-2222-------------------------|
|-0000-0---2------------------------------------------------|

Chorus GUITAR 1 & 2:
e|------------------|
B|------------------|
G|-2222------4444---| 4x
D|-2222-2222-4444---|
A|-0000-2222-2222---|
E|------0000--------|

INTRO GUITAR 1
|------------------------------------------------------------------|
|------------------------------------------------------------------|
|------------------------------------------------------------------|  X2
|--------6-7-6---------------6-7-6------------6-7-6----------------|
|----7-------------------7-----------------7------------7----9-----|
|-00---------------77-----------------55-------------55---77-------|

INTRO GUITAR 2
e|-------------------------------------|
B|-------------------------------------|
G|-99-9999--------------9999-----------| 2x
D|-99-xxxx--99-9999--77-xxxx--77-7-9---|
A|-77-7777--99-xxxx--77-7777--77-7-9---|
E|----------77-7777--55-------55-5-7---|

VERSE GUITAR 1
|-----------------------------------------------------------|
|-----------------------------------------------------------|
|-----------------------------------------------------------|
|------6---------------6-------------6----------------------| X2
|----7---7-----------7---7---------7---7---------7----9-----|
|-00-------------77-----------99-------------55---77--------|

PRE CHORUS GUITAR 1
|-----------------------------------------------------------|
|-----------------------------------------------------------|
|-----------------------------------------------------------|
|--------------6-7-6----------------------------------------|
|-------7---7--------9-7-------11---7--7------9---7----9----| X2
|----000---0-0------------9-9-9----5--5----7-7---5--7-7-----|

GUITAR 2
|-----------------------------------------------------------|
|-----------------------------------------------------------|
|-----------------------------------------------------------|
|----------4--44444--6666--2-2-4444-------------------------| X2
|-2222-2---2--22222--4444--0-0-2222-------------------------|
|-0000-0----------------------------------------------------|

CHORUS GUITAR 1 & 2
e|------------------|
B|------------------|
G|-2222------4444---| 4x
D|-2222-2222-4444---|
A|-0000-2222-2222---|
E|------0000--------|

Bridge prt.1
e|--------------------------------|
B|--------------------------------|
G|-99999999--999999--9999999999---|
D|-xxxxxxxx--xxxxxx--xxxxxxxxxx---|
A|-77777777--777777--7777777777---|
E|---------0--------0-----------0-|

SOLO GUITAR 1

|------------------------------------------------------------------|
|------------------------------------------------------------------|
|-9-9-9---11-11--9----9--11--13-11-11-9-11-------8---9---8---------|
|-x-x-x---x--x---x-9--x--x---x--x--x--x-x------9---9---9---9-------|
|-7-7-7---9--9---7-x--7--9---11-9--9--7-9--------------------------|
|------------------7-----------------------------------------------|

|------------------------------------------------------------------|
|------------------------------------------------------------------|
|-9-9-9---11-11--9----9--11--13-11-11-9-11-------8---9--11---------|  X2
|-x-x-x---x--x---x-9--x--x---x--x--x--x-x------9---9---9-----------|
|-7-7-7---9--9---7-x--7--9---11-9--9--7-9--------------------------|
|------------------7-----------------------------------------------|

                                                  PM...............
|------------------------------------------------------------------|
|-----10----10------9-------9--------------------------------------|
|-9-9---9-9---9-9--9--9-9-9---9------9-----8-------11-----9-----8--|
|--------------------------------9-9---9-9---9-9---9--9-9-9-9-9-9--|
|------------------------------------------------------------------|
|------------------------------------------------------------------|
                                                  PM...............
|------------------------------------------------------------------|
|------------------------------------------------------------------|
|-9-9-9---11-11--9----9--11--13-11-11-9-11----13-14-13-11---9------|
|-x-x-x---x--x---x-9--x--x---x--x--x--x-x-----x--x--x--x----x------|
|-7-7-7---9--9---7-x--7--9---11-9--9--7-9-----11-12-11-9----7------|
|------------------7----------------------------------------0------|


SOLO GUITAR 2
|------------------------------------------------------------------|
|------------------------------------------------------------------|
|-2--2--2--2-----------------4-4-4-4-4-4-4-4-4-4-4-4-4-4-4-4-------|  X4
|-2--2--2--2---2---2-2-2-2---2-2-2-2-2-2-2-2-2-2-2-2-2-2-2-2-------|
|-0--0--0--0---2---2-2-2-2---2-2-2-2-2-2-2-2-2-2-2-2-2-2-2-2-------|
|--------------0---0-0-0-0-----------------------------------------|

GUITAR 1
|------------------------------------------------------------------|
|------------------------------------------------------------------|
|------------------------------------------------------------------|  X4
|--------6-7-6---------------6-7-6------------6-7-6----------------|
|----7-------------------7-----------------7------------7----9-----|
|-00---------------77-----------------55-------------55---77-------|


GUITAR 2
|------x-x-x-x-------x-x-x-x-------x-x-x-x-------------------------|
|------x-x-x-x-------x-x-x-x-------x-x-x-x-------------------------|
|--9-9-x-x-x-x-------x-x-x-x-------x-x-x-x-------------------------|  X4
|--9-9-x-x-x-x--9-9--x-x-x-x---7---x-x-x-x---7-7--9-9--------------|
|--7-7-x-x-x-x--9-9--x-x-x-x---7---x-x-x-x---7-7--9-9--------------|
|------x-x-x-x--7-7--x-x-x-x---5---x-x-x-x---5-5--7-7--------------|


Chorus GUITAR 1 & 2:
e|------------------|
B|------------------|
G|-2222------4444---| 4x
D|-2222-2222-4444---|
A|-0000-2222-2222---|
E|------0000--------|

OUTRO
GUITAR 1
|------------------------------------------------------------------|
|------------------------------------------------------------------|
|------------------------------------------------------------------|  X2
|--------6-7-6---------------6-7-6------------6-7-6----------------|
|----7-------------------7-----------------7------------7----9-----|
|-00---------------77-----------------55-------------55---77-------|

OUTRO GUITAR 2
e|-------------------------------------|
B|-------------------------------------|
G|-99-9999--------------9999-----------| 2x
D|-99-xxxx--99-9999--77-xxxx--77-7-9---|
A|-77-7777--99-xxxx--77-7777--77-7-9---|
E|----------77-7777--55-------55-5-7---|

END ON
|--------|
|--------|
|--------|
|-2-2----|
|-2-2----|
|-0-0----|
Calificar esta versión:
Aviso: Este fichero es trabajo propio de su transcriptor y representa su interpretación personal de la canción. El material contenido en esta página es para exclusivo uso privado, por lo que se prohibe su reproducción o retransmisión, así como su uso para fines comerciales.
Más versiones de Underclass Hero, Sum 41
Underclass Hero
tablatura
Underclass Hero (ver 2)
tablatura
Underclass Hero
bajo
Descubre más canciones de Sum 41