Underclass Hero, Sum 41 (tablatura)

Autor: ercu | 24916 visualizaciones

Intro prt.1:
e|---------------------------------------------------|
B|---------------------------------------------------|
G|---------------------------------------------------| 2x
D|------6h7-6-------6h7-6--------6h7-6---------------|
A|----7-----------7--------00-7--------00-7------9---|
E|-00---------77-----------------------------77------|
   ..         ..           ..

Intro prt.2:
Gtr.1
e|----------------------------------------|
B|----------------------------------------|
G|-99-------------------------------------| 2x
D|-99-6h7p6--99-6h7p6--77-6h7p6--77-7-9---|
A|-77--------99--------77--------77-7-9---|
E|-----------77--------55--------55-5-7---|
   ..        ..        ..        .. 

Gtr.2
e|-------------------------------------|
B|-------------------------------------|
G|-99-9999--------------9999-----------| 2x
D|-99-xxxx--99-9999--77-xxxx--77-7-9---|
A|-77-7777--99-xxxx--77-7777--77-7-9---|
E|----------77-7777--55-------55-5-7---|
   ..       ..       ..       ..   

Verse:
Gtr.1
e|----------------------------------|
B|----------------------------------|
G|-111--9999999999999999999999999---|
D|-222--xxxxxxxxxxxxxxxxxxxxxxxxx---|
A|-222--7777777777777777777777777---|
E|-000------------------------------|

Gtr.2
e|--------------------------------------------------|
B|--------------------------------------------------|
G|--------------------------------------------------| 2x
D|------6------------6-----------6------------------| 
A|----7---7--------7---7-------7---7-------7----9---|
E|-00----------77-----------9-----------55---77-----|

Pre-Chorus:
Gtr.1
e|------------------------|
B|------------------------|
G|-11111-4444-6666--------| 2x
D|-22222-4444-6666-7777---|
A|-22222-2222-4444-7777---|
E|-00000-----------5555---|

Gtr.2
e|-------------------------------------|
B|-------------------------------------|
G|-999999999999999999999999999999999---|
D|-xxxxxxxxxxxxxxxxxxxxxxxxxxxxxxxxx---|
A|-777777777777777777777777777777777---|
E|-------------------------------------|

Chorus:
e|------------------|
B|------------------|
G|-2222-1111-4444---| 4x
D|-2222-2222-4444---|
A|-0000-2222-2222---|
E|------0000--------|

Pre-Verse 2:
e|----------------------------------------|
B|----------------------------------------|
G|-99-------------------------------------| 2x
D|-99-6h7p6--99-6h7p6--77-6h7p6--77-7-9---|
A|-77--------99--------77--------77-7-9---|
E|-----------77--------55--------55-5-7---|
   ..        ..        ..        ..

Verse 2:
Play Verse 1 w/ Jet Effect

Repeat Pre-Chorus:

Repeat Chorus:

Bridge prt.1
e|--------------------------------|
B|--------------------------------|
G|-99999999--999999--9999999999---|
D|-xxxxxxxx--xxxxxx--xxxxxxxxxx---|
A|-77777777--777777--7777777777---|
E|--------------------------------|

Bridge prt.2(Solo):
Gtr.1:Play Chorus

Gtr.2
e|----------------------------5---------|
B|--------------------------4---4-5-7---|
G|--------------------------------------| 2x
D|-22-2-4-2---2-4-6-4-4p2-4-------------|
A|----------2---------------------------|
E|--------------------------------------|

e|---5---5------------------------------------------------------------------|
B|-5---5---5~~-44-4-5-4---5b-4b---------------------------------------------|
G|----------------------4------------------------------------2-1-1h2-1------|
D|--------------------------------22-2-4-2---2-4-6--4-2-4--2-----------2~---|
A|---------------------------------------------------------------------2~---|
E|---------------------------------------------------------------------0~---|

Repeat Intro prt.1

Repeat Chorus:

Repeat Intro prt.2:

Last Chord:
e|-------|
B|-------|
G|-1-1---|
D|-2-2---|
A|-2-2---|
E|-0-0---|
   . .

End...

Comentarios del colaborador: esta tablatura me parecio muy buena y quise compartirla la sque de http://www.ultimate-guitar.com/tabs/s/sum_41/underclass_hero_ver2_tab.htm

Calificar esta versión:
Aviso: Este fichero es trabajo propio de su transcriptor y representa su interpretación personal de la canción. El material contenido en esta página es para exclusivo uso privado, por lo que se prohibe su reproducción o retransmisión, así como su uso para fines comerciales.
Más versiones de Underclass Hero, Sum 41
Underclass Hero
tablatura
Underclass Hero (ver 2)
tablatura
Underclass Hero
bajo
Descubre más canciones de Sum 41