Confesiones De Invierno, Sui Generis (acordes) (ver 4)

Autor: NicoBeatle | 30206 visualizaciones

a7a7sus4cddsus4em7ggm


Intro:
                                                _
                                                 |
e--------------232--------------------232------  |
B--------3----------3-----------3----------3---  |
G-----2-----2----------2-----2-----2----------2  |
D--0----------------------0--------------------  |
A----------------------------------------------  |
E----------------------------------------------  |
                                                 |-- x2
e--------------------------2-------------------  |
B--------------------------3-------------------  |
G-----------0-----------0--2-------------------  |
D--------0-----------0-----0-------------------  |
A--0--3--------0--2----------------------------  |
E----------------------------------------------  |
                                                _|

D         Dsus4 D         G      D
Me echo de mi cuarto gritaaandomeee

C          G  A7  D
No tienes pro-fe-sión

D         Dsus4  D          G       D
Tuve que enfrentarme a mi cooondiciooon

C        G  A7     D
En invierno no hay Sol 



          G                Gm        D    
Y aunque diiigan que va a seeer muy faaacil

        C          A7    D
Es muy duuuro poder meeejoraaar

       G             Gm        D
Hace friiio y me faltaaa un abriiigo

     Em7            G     A7sus4   A7
y me pesa el hambre de esperaaar



Quien me dará algo paraaa fumaaar

O casa en que vi-vir

Sé que entre las calles debeees estaaar

Pero no sé par-tir



Y la raaadio nos confuuunde a tooodos

Sin dineeero la pasaaare maaal

Si se cooomen mi carneee los looobos

No podré robarles la mitaaad



Dios es empleado en un mooostradooor

Da para re-ci-bir

Quién me dará un crédito miii señooor

Sólo se son-re-ír



Y tal vez espere deeemasiaaado

Quisiera que estuvieras aquí

Cerraraaan las puertas de eeeste infieeerno

Y es posiiible que me quiera iiir



Conseguí licor y me embooorracheee

En el baño de un bar

Fuí a dar a la calle de un puuuntapieee

Y me sentí muy mal



Y si bien yo nunca había bebiiido

En la cárcel tuve que aaacabaaar

La fiaaanza la pagooo un amiiigo

las heridas son del oficiaaaaaaaaaaaaaaaaaaal



Hace cuatro años que estoooy aquiii

y no quiero sa-lir

Ya no paso frío y soooy feliiiz

Mi cuarto da al jar-dín



Y aunque a veeeces me acuerdo de ella

Dibujé su cara en laaa pareeed

Solamente muero looos domiiingooos

Y los lunes... Ya me sieeen-tooo

bieeennn

e--2-----2-----2-----2-----3-----3-----3-----3------2-----------
B-----3-----3-----3-----3-----1-----1-----0-----0---3-----------
G---------------------------------------------------2-----------
D---------------------------------------------------0-----------
A---------------------------------------------------------------
E---------------------------------------------------------------



Nota: En las estrofas se repiten siempre los mismos acordes.





Comentarios del colaborador: Este tema no lo saqué yo, fue un amigo. Escúchenlo primero.

Calificar esta versión:
Aviso: Este fichero es trabajo propio de su transcriptor y representa su interpretación personal de la canción. El material contenido en esta página es para exclusivo uso privado, por lo que se prohibe su reproducción o retransmisión, así como su uso para fines comerciales.
Más versiones de Confesiones De Invierno, Sui Generis
Confesiones De Invierno
acordes
Confesiones De Invierno (ver 2)
acordes
Confesiones De Invierno (ver 3)
acordes
Confesiones De Invierno (ver 4)
acordes
Confesiones De Invierno
tablatura
Confesiones De Invierno
armonica
Confesiones De Invierno
video guitarra
Descubre más canciones de Sui Generis