Confesiones De Invierno, Sui Generis (acordes) (ver 2)

Autor: acdcserrate | 30668 visualizaciones

a7a7sus4cdd-aem7gg-b


AUTOR: Charly García
ALBUM: El Legado de Sui Generis en Vivo, Vol. 1
	sgen0081

E|------2h3p2---------2h3p2---------------------|
B|----3------3------3------3--------------------|
G|--2--2------0h2--2-2-------2--------0------0--|
D|-0--------------0-----------------0------0----|
A|-------------------------------0h3---0h2------|
E|----------------------------------------------|

E|------2h3p2-----------2h3p2-------------------|
B|----3------3-------3--------3-----------------|
G|--2--2-------2---2---2-------2--------0------0|
D|-0--------------0-----------------0------0----|
A|-------------------------------0h3---0h2------|
E|----------------------------------------------|


E|-----2h3p2----------2h3p2-2--| FIN
B|---3------3-------3----------|
G|--2-2------0h2---2-2---------|  DE
D|-0--------------0------------|
A|-----------------------------| INTRO
E|-----------------------------|

D                     G/B    D   C         G/B A7  D
Me echo de su cuarto gritandome: no tienes pro-fe-sión
D                     G/B        D   C       G/B    A7   D
Tuve que enfrentarme a mi condición, en invierno no hay Sol 
          G/B           Gm/Bb    D/A            C        A7   D
Y aunque digan que va a ser muy facil, es muy duro poder mejorar
     G/B       Gm/Bb      D/A       Em7             G   A7sus4 A7
Hace frío y me falta un abrigo y me pesa el hambre de esperar


Quien me dará algo para fumar? o casa en que vivir
Sé que entre las calles debes estar, pero no sé partir
Y la radio nos confunde a todos, sin dinero la pasaré mal
Si se comen mi carne los lobos, no podré robarles la mitad

Dios es empleado en un mostrador, da para recibir
Quien me dará un crédito mi señor? sólo sé sonreir
Y tal vez espere demasiado, quisiera que estuvieras aquí
Cerrarán las puertas de este infierno y es posible que me quiera ir

Conseguí licor y me emborraché, en el baño de un bar
Fuí a dar a la calle de un puntapié y me sentí muy mal
Y si bién yo nunca habia bebido, en la carcel tuve que acabar
     G/B       Gm/Bb  D/A       Em7             G   A7sus4 A7 A7sus4 A7
La fianza la pagó un amigo, las heridas son del oficiaaaaaaaaaaaaaaaal

[ahora la canción va mas lenta]

Hace cuatro que estoy aquí y no quiero salir
Ya no paso frío y soy feliz, mi cuarto da al jardín
Y aunque a veces me acuerdo de ella, dibujé su cara en la pared
                                    Em7       A7sus4 A7
Solamente muero los domingos, y los lunes ya me sien-to
bieeeeeeeeeeen
E|-2--2--2--2--3--3--3--3-----2-----------------||
B|--3--3--3--3--1--1--0--0----3-[arpegiado]-----||
G|----------------------------2-----------------||   FIN
D|----------------------------0-----------------||
A|----------------------------------------------||
E|----------------------------------------------||

Acordes especiales:
  G/B   A7  A7sus4  Gm/Bb  D/A  Em7
E  3    0     0       3     2    0
B  3    2     3       3     3    3
G  0    0     0       0     2    0
D  0    2     2       x     x    2
A  2    0     0       1     0    2
E  x    x     x       x     x    0
 





Calificar esta versión:
Aviso: Este fichero es trabajo propio de su transcriptor y representa su interpretación personal de la canción. El material contenido en esta página es para exclusivo uso privado, por lo que se prohibe su reproducción o retransmisión, así como su uso para fines comerciales.
Más versiones de Confesiones De Invierno, Sui Generis
Confesiones De Invierno
acordes
Confesiones De Invierno (ver 2)
acordes
Confesiones De Invierno (ver 3)
acordes
Confesiones De Invierno (ver 4)
acordes
Confesiones De Invierno
tablatura
Confesiones De Invierno
armonica
Confesiones De Invierno
video guitarra
Descubre más canciones de Sui Generis