Devil Went Down To Georgia, Steve Ouimette (tablatura) (ver 2)

Autor: Guitar3297 | 18765 visualizaciones



ictory Solo R

|-------------------------------------------|
|-------------------------------------------|
|-------------------------------------------|
|--------------------------------5-----5h6--|
|---------------0-3-4-6----5-6h7---6-7------|
|-0wd-0-4-5-6b7---------/9------------------|

|---------------------------------------------------|
|------------------------------------------13h14h15-|
|---------------------------------12h13h14----------|
|---5-6h7-------------10h12h13h14-------------------|
|-7-------/8h10h11h12-------------------------------|
|---------------------------------------------------|

|----------16h17h20-10-10-10-10-10-10-10-10-|
|-15h18h20----------------------------------|
|-------------------------------------------|
|-------------------------------------------|
|-------------------------------------------|
|-------------------------------------------|

|-10-10-10-10-15-10-10-10-17-10-10-10-13-10-15-|
|----------------------------------------------|
|----------------------------------------------|
|----------------------------------------------|
|----------------------------------------------|
|----------------------------------------------|

|-10-10-10-15-10-10-17-10-10-18-10-10-18-10-10-|
|----------------------------------------------|
|----------------------------------------------|
|----------------------------------------------|
|----------------------------------------------|
|----------------------------------------------|


|-17-10-1917-10-10-15h17-10-10-13h15-10-13-10-10-10--|
|-----------------------------------------------------|
|-----------------------------------------------------|
|-----------------------------------------------------|
|-----------------------------------------------------|
|-----------------------------------------------------|

|-15h17-------------------------------------------|
|-------10-10-17p15-10-10-15h13-10-10-15h17-10-10-|
|-------------------------------------------------|
|-------------------------------------------------|
|-------------------------------------------------|
|-------------------------------------------------|

|-13-------13-------13h15-------13h15----14----|
|----10-10----10-10-------10-10-------10----10-|
|----------------------------------------------|
|----------------------------------------------|
|----------------------------------------------|
|----------------------------------------------|

|----------15-17-18-17-15-------------------------------|
|-15-17-18----------------18-17-15----------------------|
|----------------------------------17-15-14-15-17-15-14-|
|-------------------------------------------------------|
|-------------------------------------------------------|
|-------------------------------------------------------|

|-------------------------------------|
|-------------------------15-17-18----|
|----------------14-15-17-------------|
|-17-15-14-15-17----------------------|
|-------------------------------------|
|-------------------------------------|

|----------------------------------------------|
|----------------------------------------------|
|----------------------------------------------|
|-12p0h7-t14p12p7-t16p7h12?-t14p9t15p10t17p12--|
|----------------------------------------------|
|----------------------------------------------|

|-------------------12/13h17t22-h12h15t18---|
|-------------------------------------------|
|-t14p9t17p10t19p12-------------------------|
|-------------------------------------------|
|-------------------------------------------|
|-------------------------------------------|

|---------------------------------------------------|
|-h15h18t22-----------------------------------------|
|-----------h14h17t21-h12h15t19---------------------|
|-------------------------------h12h15t20t19p17p12-|
|---------------------------------------------------|
|---------------------------------------------------|

|----------------------------------------------------|
|----------------------------------------------------|
|----------------------------------------------------|
|-t20p17p12-t22p17p12-t22p17p14-t20p19p14-t22p19p14--|
|----------------------------------------------------|
|----------------------------------------------------|

|------------------------------------------------|
|------------------------------------------------|
|-t19p16p11-t19p16p11-t19p16t19p16p12?t21p17p14--|
|------------------------------------------------|
|------------------------------------------------|
|------------------------------------------------|

|-------------------------------------------|
|-t18p15p12---------------------------------|
|---------------t21p16t19p16p11-t19p16p11---|
|-----------h16-----------------------------|
|-------------------------------------------|
|-------------------------------------------|

|-------------------------------------------|
|---------------------t18p15p12-t20p17p13---|
|-t21p17p14-t21p17p14-----------------------|
|-------------------------------------------|
|-------------------------------------------|
|-------------------------------------------|

|---------------------t18p15p12-t19p15p12---|
|-t22p18p15-t22p18p15-----------------------|
|-------------------------------------------|
|-------------------------------------------|
|-------------------------------------------|
|-------------------------------------------|

|-t20p16p13-t21p17p14-t22p18p15-t22p19p16-22~--------|
|-----------------------------------------22~--------|
|-----------------------------------------22~--------|
|----------------------------------------------------|
|----------------------------------------------------|
|---------------------------------------------/12p0wd|





Comentarios del colaborador: Esta es mi primera tab.... espero q la disfruten!

Calificar esta versión:
Aviso: Este fichero es trabajo propio de su transcriptor y representa su interpretación personal de la canción. El material contenido en esta página es para exclusivo uso privado, por lo que se prohibe su reproducción o retransmisión, así como su uso para fines comerciales.
Más versiones de Devil Went Down To Georgia, Steve Ouimette
Devil Went Down To Georgia
tablatura
Devil Went Down To Georgia (ver 2)
tablatura
Descubre más canciones de Steve Ouimette