Devil Went Down To Georgia, Steve Ouimette (tablatura)

Autor: el_jvc | 27954 visualizaciones



-------------------15-17--17-18-17-15----|
--15--15-17-18--18--------------------18-|
-----------------------------------------|
-----------------------------------------|
-----------------------------------------|
-----------------------------------------|

---------------------13-15-17-15-13-----|
--13--13-15-17-15-17----------------17~-|
----------------------------------------|
----------------------------------------|
----------------------------------------|
----------------------------------------|

----------------------------------------|
--15h-17p-15--13h-15p-13--11h-13p-11-10-|
----------------------------------------|
----------------------------------------|
----------------------------------------|
----------------------------------------|

                           \0/   \1/
-------------------------------------|
--8h-10p-8-6-6h-8p-6--3--L-----------|
---------------------------2---L-5---|
-------------------------------------|
-------------------------------------|
-------------------------------------|

  \4
-------------------|
-------------------|
-------------------|
--0----------------|
-------------------|
-------------------|

----------------------|
----------------------|
----------------------|
--L--------L----L-----|
----------------------|
-------------------0--|

  \4
-------------------|
-------------------|
-------------------|
-------------------|
-------------------|
--0----------------|

                   PM PM
-------------------------|
-------------------------|
-------------------------|
-------------------------|
-------------------------|
--L--------L----L--0--0--|

  PM PM PM PM PM PM PM PM PM PM PM PM PM
----------------------------------------|
----------------------------------------|
----------------------------------------|
----------------------------------------|
----------------------------------------|
--0--0--0--0--0--0--0--0--0--0--0--0--0-|

  PM PM PM PM PM PM PM PM PM PM PM PM PM
----------------------------------------|
----------------------------------------|
----------------------------------------|
----------------------------------------|
----------------------------------------|
--0--0--0--0--0--0--0--0--0--0--0--0--0-|

  PM PM PM PM PM PM PM PM PM PM PM PM PM
----------------------------------------|
----------------------------------------|
----------------------------------------|
----------------------------------------|
----------------------------------------|
--0--0--0--0--0--0--0--0--0--0--0--0--0-|

  PM PM PM PM PM PM PM PM PM PM PM PM PM
----------------------------------------|
----------------------------------------|
----------------------------------------|
----------------------------------------|
----------------------------------------|
--0--0--0--0--0--0--0--0--0--0--0--0--0-|

  PM PM PM PM PM PM PM PM PM PM PM PM PM
----------------------------------------|
----------------------------------------|
----------------------------------------|
----------------------------------------|
----------------------------------------|
--0--0--0--0--0--0--0--0--0--0--0--0--0-|

  PM PM PM PM PM PM PM PM PM PM PM PM PM
----------------------------------------|
----------------------------------------|
----------------------------------------|
----------------------------------------|
----------------------------------------|
--0--0--0--0--0--0--0--0--0--0--0--0--0-|

  PM PM PM PM PM PM PM PM PM PM PM PM PM
----------------------------------------|
----------------------------------------|
----------------------------------------|
----------------------------------------|
----------------------------------------|
--0--0--0--0--0--0--0--0--0--0--0--0--0-|

  PM PM PM PM PM PM PM PM      PM    PM
----------------------------------------|
----------------------------------------|
----------------------------------------|
--------------------------7--L----------|
--------------------------5--L----------|
--0--0--0--0--0--0--0--0-------7--L-10--|

-------------------|-------------------|
-------------------|-------------------|
-------------------|-------------------|
--7----------------|--L----------------|
--5----------------|--L----------------|
-------------------|-------------------|

       PM PM PM PM      PM PM PM PM
-----------------------------------------|
-----------------------------------------|
-----------------------------------------|
-----------------------------------------|
--3h-5-------------3h-5-------------3h-5-|
-------0--0--0--0-------0--0--0--0-------|

       PM PM PM PM      PM PM PM PM
-----------------------------------------|
-----------------------------------------|
-----------------------------------------|
-----------------------------------------|
--3h-5-------------5h-6-------------3h-5-|
-------0--0--0--0-------0--0--0--0-------|

       PM PM PM PM      PM PM PM PM
-----------------------------------------|
-----------------------------------------|
-----------------------------------------|
-----------------------------------------|
--3h-5-------------3h-5-------------3h-5-|
-------0--0--0--0-------0--0--0--0-------|

       PM PM PM PM PM PM      PM    PM
---------------------------------------|
---------------------------------------|
---------------------------------------|
-------------------------7--L----------|
--3h-5-------------------5--L-7--L-10--|
-------0--0--0--0--0--0-------7--L-10--|

       PM PM PM PM      PM PM PM PM
-----------------------------------------|
-----------------------------------------|
-----------------------------------------|
-----------------------------------------|
--3h-5-------------3h-5-------------3h-5-|
-------0--0--0--0-------0--0--0--0-------|

       PM PM PM PM      PM PM PM PM
-----------------------------------------|
-----------------------------------------|
-----------------------------------------|
-----------------------------------------|
--3h-5-------------5h-6-------------3h-5-|
-------0--0--0--0-------0--0--0--0-------|

       PM PM PM PM      PM PM PM PM
-----------------------------------------|
-----------------------------------------|
-----------------------------------------|
-----------------------------------------|
--3h-5-------------3h-5-------------3h-5-|
-------0--0--0--0-------0--0--0--0-------|

       PM PM PM PM
----------------------------------------|
----------------------------------------|
------------------------x-x-x-x-x-x-x-x-|
------------------------x-x-x-x-x-x-x-x-|
--3h-5-------------3h-5-x-x-x-x-x-x-x-x-|
-------0--0--0--0-------x-x-x-x-x-x-x-x-|

  PM PM    PM PM    PM PM    PM PM
--------------------------------------|
--------------------------------------|
--------7--------7--------7--------7--|
--------7--------7--------7--------7--|
--5--5--5--5--5--5--5--5--5--5--5--5--|
--------------------------------------|

  PM PM    PM PM    PM PM    PM PM
--------------------------------------|
--------------------------------------|
--------5--------5--------5--------5--|
--------5--------5--------5--------5--|
--3--3--3--3--3--3--3--3--3--3--3--3--|
--------------------------------------|

   PM PM     PM PM     PM PM     PM PM
   S  S  E   S  S  E   S  S  E   S  S  E
-----------------------------------------|
-----------------------------------------|
--------12--------12--------12--------12-|
--------12--------12--------12--------12-|
--10-10-10--10-10-10--10-10-10--10-10-10-|
-----------------------------------------|

  PM PM    PM PM    PM PM    PM PM
--------------------------------------|
--------------------------------------|
--------7--------7--------7--------7--|
--------7--------7--------7--------7--|
--5--5--5--5--5--5--5--5--5--5--5--5--|
--------------------------------------|

  PM PM    PM PM    PM PM    PM PM
--------------------------------------|
--------------------------------------|
--------7--------7--------7--------7--|
--------7--------7--------7--------7--|
--5--5--5--5--5--5--5--5--5--5--5--5--|
--------------------------------------|

  PM PM    PM PM    PM PM    PM PM
--------------------------------------|
--------------------------------------|
--------5--------5--------5--------5--|
--------5--------5--------5--------5--|
--3--3--3--3--3--3--3--3--3--3--3--3--|
--------------------------------------|

-------------------|
-------------------|
-------------------|
-------------------|
--7----------------|
--7----------------|

----------------------|
----------------------|
----------------------|
----------------------|
--7-------------------|
--7----5----3----2----|

-------------------15-17--17-18-17-15----|
--15--15-17-18--18--------------------18-|
-----------------------------------------|
-----------------------------------------|
-----------------------------------------|
-----------------------------------------|

---------------------13-15-17-15-13-----|
--13--13-15-17-15-17----------------17~-|
----------------------------------------|
----------------------------------------|
----------------------------------------|
----------------------------------------|


   S   S   E   S   S   E   S   S   S  S
----------------------------------------|
--15h-17p-15--13h-15p-13--11h-13p-11-11-|
----------------------------------------|
----------------------------------------|
----------------------------------------|
----------------------------------------|

-----------------------------------|
--8h-10p-8-6-6h-8p-6--3--L---------|
---------------------------2--L-5--|
-----------------------------------|
-----------------------------------|
-----------------------------------|

----------------------|
--3~------------L\----|
----------------------|
----------------------|
----------------------|
----------------------|

                *pickscrap
--------------------------|
--------------------------|
--------------------------|
--------------------------|
----------------x\--------|
----------------x\--------|

  PM PM PM PM PM PM PM PM PM PM PM PM PM
----------------------------------------|
----------------------------------------|
----------------------------------------|
----------------------------------------|
----------------------------------------|
--0--0--0--0--0--0--0--0--0--0--0--0--0-|

  PM PM PM PM PM PM PM PM PM PM PM PM PM
----------------------------------------|
----------------------------------------|
----------------------------------------|
----------------------------------------|
----------------------------------------|
--0--0--0--0--0--0--0--0--0--0--0--0--0-|

  PM PM PM PM PM PM PM PM PM PM PM PM PM
----------------------------------------|
----------------------------------------|
----------------------------------------|
----------------------------------------|
----------------------------------------|
--0--0--0--0--0--0--0--0--0--0--0--0--0-|

  PM PM PM PM PM PM PM PM      PM    PM
----------------------------------------|
----------------------------------------|
----------------------------------------|
--------------------------7--L----------|
--------------------------5--L----------|
--0--0--0--0--0--0--0--0-------7--L-10--|

--------------------------------|
--------------------------------|
--7--x-x-7--x-10--x-x-x-10--x-x-|
--7--x-x-7--x-10--x-x-x-10--x-x-|
--5--x-x-5--x--8--x-x-x--8--x-x-|
--------------------------------|

-------------------------------|
--8--x-x-8--x----x----x----x-x-|
--9--x-x-9--x-7--x-7--x-7--x-x-|
--9--x-x-9--x-7--x-7--x-7--x-x-|
--7--x-x-7--x-5--x-5--x-5--x-x-|
-------------------------------|

--------------------------------|
--------------------------------|
--7--x-x-7--x-10--x-x-x-10--x-x-|
--7--x-x-7--x-10--x-x-x-10--x-x-|
--5--x-x-5--x--8--x-x-x--8--x-x-|
--------------------------------|

-------------------------------|
--8--x-x-8---------------------|
--9--x-x-9--x-7--x-7--x-7--x-x-|
--9--x-x-9--x-7--x-7--x-7--x-x-|
--7--x-x-7--x-5--x-5--x-5--x-x-|
-------------------------------|

     PM PM PM PM    PM PM
--------------------------|
--------------------------|
--------------------------|
--7--L-----------7--L-----|
--5--L-----------5--L-----|
-----0--5--6--7-----7--6--|

  PM PM PM PM PM PM PM PM
--------------------------|
--------------------------|
--------------------------|
--------------------------|
--------------------------|
--5--3--5--6--7--3--5--3--|

     PM PM PM PM    PM PM
--------------------------|
--------------------------|
--------------------------|
--7--L-----------7--L-----|
--5--L-----------5--L-----|
-----0--5--6--7-----7--6--|

  PM PM PM PM PM PM PM PM
--------------------------|
--------------------------|
--------------------------|
--------------------------|
--------------------------|
--5--3--5--6--7--3--5--3--|

     PM PM PM PM    PM PM
--------------------------|
--------------------------|
--------------------------|
--7--L-----------7--L-----|
--5--L-----------5--L-----|
-----0--5--6--7-----7--6--|

  PM PM PM PM PM PM PM PM
--------------------------|
--------------------------|
--------------------------|
--------------------------|
--------------------------|
--5--3--5--6--7--3--5--3--|

     PM PM PM PM    PM PM
--------------------------|
--------------------------|
--------------------------|
--7--L-----------7--L-----|
--5--L-----------5--L-----|
-----0--5--6--7-----7--6--|

  PM PM PM PM PM PM PM PM
--------------------------|
--------------------------|
--------------------------|
--------------------------|
--------------------------|
--5--3--5--6--7--3--5--3--|

I'M TRYING TO TAB THE SOLO SOON

BECAUSE I DUNNO THE SOLO


-------------------|
-------------------|
-------------------|
--7----------------|
--5----------------|
-------------------|

   \1
--10(11)----------------|
------------------------|
------------------------|
------------------------|
------------------------|
------------------------|

-------------------|
-------------------|
-------------------|
--5----------------|
--3----------------|
-------------------|

----------------------|
--17br----------------|
----------------------|
----------------------|
----------------------|
----------------------|

-------------------|
-------------------|
-------------------|
--7----------------|
--5----------------|
-------------------|

   T            T            T
--13-10p-8h-10-13-10p-8h-10-13-10p-8h-10-|
-----------------------------------------|
-----------------------------------------|
-----------------------------------------|
-----------------------------------------|
-----------------------------------------|

--20b--20--17---------------------|
---------------20--17--20--20b----|
----------------------------------|
----------------------------------|
----------------------------------|
----------------------------------|

-----------------------13-15-13-15-17-15-|
--13-15-13-15-17-15-17-------------------|
-----------------------------------------|
-----------------------------------------|
-----------------------------------------|
-----------------------------------------|

-----------15----------------------15----|
--18-17-18----18-17-15-17-18-17-18----18-|
-----------------------------------------|
-----------------------------------------|
-----------------------------------------|
-----------------------------------------|

-----------------------13-15-13-15-17-15-|
--13-15-13-15-17-15-17-------------------|
-----------------------------------------|
-----------------------------------------|
-----------------------------------------|
-----------------------------------------|

-----------15----------------------15----|
--18-17-18----18-17-15-17-18-17-18----18-|
-----------------------------------------|
-----------------------------------------|
-----------------------------------------|
-----------------------------------------|

-----------------------13-15-13-15-17-15-|
--13-15-13-15-17-15-17-------------------|
-----------------------------------------|
-----------------------------------------|
-----------------------------------------|
-----------------------------------------|

--17-13-15----13-------------------------|
-----------17----15-17-13-15-12-13----12-|
-----------------------------------14----|
-----------------------------------------|
-----------------------------------------|
-----------------------------------------|

Don't know the second solo so i just put the rythm section


  PM PM    PM PM    PM PM    PM PM
--------------------------------------|
--------------------------------------|
--------7--------7--------7--------7--|
--------7--------7--------7--------7--|
--5--5--5--5--5--5--5--5--5--5--5--5--|
--------------------------------------|

  PM PM    PM PM    PM PM    PM PM
--------------------------------------|
--------------------------------------|
--------5--------5--------5--------5--|
--------5--------5--------5--------5--|
--3--3--3--3--3--3--3--3--3--3--3--3--|
--------------------------------------|





Calificar esta versión:
Aviso: Este fichero es trabajo propio de su transcriptor y representa su interpretación personal de la canción. El material contenido en esta página es para exclusivo uso privado, por lo que se prohibe su reproducción o retransmisión, así como su uso para fines comerciales.
Más versiones de Devil Went Down To Georgia, Steve Ouimette
Devil Went Down To Georgia
tablatura
Devil Went Down To Georgia (ver 2)
tablatura
Descubre más canciones de Steve Ouimette