Tu Nombre Sobre Mi Nombre, Spinetta Y Los Socios Del Desierto (tablatura)

Autor: Anónimo | 45201 visualizaciones

                  
Al no encontrar alguna versión de calidad para esta gran canción, saqué una
versión propia. Espero que les sea útil. 

La Intro es como 'Principal', pero con algunas pequeñas variaciones.

Principal:

1|----------------------------------------------|
2|----------------------------------------------|
3|---------2-1----------------------------------|
4|-------0-----2-2p0--2h4h2p0--2h4---2----------|
5|-----0----------------------------------------|
6|----------------------------------------------|


1|----------------------------------------------|
2|----------------------------------------------|
3|---------2-1----------------------------------|
4|-------0-----2-2p0--2h4-2---------------------|
5|-----0---------------------2----4h5h4h5h4-----|
6|----------------------------------------------|


Repetir Principal:

Mientras el sol se filtra por mi ventana
no sé si aquella luz se regresa aquí.
No sabes como extraño mi calma,
no sé si voy a ser feliz así.

Puente:

1|----------------------------------------------|
2|---------3--2--0--0---------0--2--3-----------|
3|---------0--0--0--0---------0--0--0-----------|
4|---------0--0--0--0---------0--0--0-----------|
5|----------------------------------------------|
6|----3------------------3----------------------|




Puente x 2

Dime mi amor ¿Me perdí?
Dime porque no te vi.
     FAM7                 MI        MIm
Y espero que te olvides mi nombre.

Principal:

Mientras el sol se filtra por mi ventana
la lluvia brinda su aire en mi.
No sabes como extraño mi calma,
no sabes si voy a ser feliz así.

Puente x 2:

Dime mi amor ¿Qué pasó?
No se porque yo no fui.
      FAM7?                MI    
Y espero que te olvides mi nombre.

Coro:

       SOLm                    LAm7
Solo espero que las brumas del alba
           REm7         Bbmaj7   LAm7     
traigan un nombre a mi vida.
    SOLm                  LAm7    
Espero que las llamas del alba 
           REm7         Bbmaj7   LAm7 
traigan un alma.

Principal:

No sabes como extraño mi alma,
no se si aquella luz se queda.
Bien sabes como extraño tu alma,
no sabe si esta luz se quede en mi.

Puente x 2:

                   
Uo, uo, uo, uo, hay, hay, hay
Uo, uo, uo, uo, hay, hay, hay
        FAM7?                MI        
Y espero que te olvides mi nombre.

Coro:

Espero que las llamas del alba
traigan un rumbo a mi vida.
Espero solo espero tu nombre
sobre mi nombre en este día.

Puente II:
    LA                 LA# 
La eternidad busca un paso en tí, amor.
            LA             LA#                        LA?    LA 
Es que la eternidad solo busca un paso en ti, amor.

Repetir Principal para finalizar./


Acordes:

1|--0--------1--------0----------------------------|
2|--0--------3--------3----------------------------|
3|--2--------2--------3----------------------------|
4|--3--------3--------2----------------------------|
5|--2--------1--------0----------------------------|
6|--x--------x--------x----------------------------|

  FAM7?   Bbmaj7     LA?





Nota: En este canción Spinetta tiene afinada su guitarra de la forma tradicional, pero la 6ª 
      cuerda la tiene afinada en Re en vez de Mi, pero esta adaptación esta hecha para la 
      afinación tradicional. Lo que cambiaría si estuviera afinada como en el disco sería en 
      el 'Principal', ya que antes de comenzar a tocar esa sección Spinetta toca la 6ª cuerda 
      al aire (Re). También cambiaría el 'Puente', trasladando todo 4 espacios debido a que 
      ahora la nota Sol que se toca se traslado al 5º espacio debido al cambio en la afinación.
      Dudas o consultas: bfortiz@hotmail.com
Calificar esta versión:
Aviso: Este fichero es trabajo propio de su transcriptor y representa su interpretación personal de la canción. El material contenido en esta página es para exclusivo uso privado, por lo que se prohibe su reproducción o retransmisión, así como su uso para fines comerciales.
Más versiones de Tu Nombre Sobre Mi Nombre, Spinetta Y Los Socios Del Desierto
Tu Nombre Sobre Mi Nombre
acordes
Tu Nombre Sobre Mi Nombre
tablatura
Tu Nombre Sobre Mi Nombre (ver 2)
tablatura
Descubre más canciones de Spinetta Y Los Socios Del Desierto