Encararte, Sonido Basico (tablatura) (ver 2)

Autor: boris22 | 31837 visualizaciones



e---------------------------------------------------------------
B--1-1-1---3----5---1---3-----0-0-0--1---3---0---1--------------
G---------------------------------------------------------------
D---------------------------------------------------------------
A---------------------------------------------------------------
E---------------------------------------------------------------

e---------------------------------------------------------------
B--1-1-1--0----------------------------1-0----------------------
G------------2--0----------------0-2----------------------------
D--------------------3-----3-3-3--------------------------------
A---------------------------------------------------------------
E---------------------------------------------------------------

e--------------0------------------------------------------------
B---0-0-0--1-3---1----------------------------------------------
G---------------------------------------------------------------
D---------------------------------------------------------------
A---------------------------------------------------------------
E---------------------------------------------------------------





Comentarios del colaborador: me parecio q asi es, si no es asi diganme q esta mal, gracias y saludos

Calificar esta versión:
Aviso: Este fichero es trabajo propio de su transcriptor y representa su interpretación personal de la canción. El material contenido en esta página es para exclusivo uso privado, por lo que se prohibe su reproducción o retransmisión, así como su uso para fines comerciales.
Más versiones de Encararte, Sonido Basico
Encararte
acordes
Encararte
tablatura
Encararte (ver 2)
tablatura
Descubre más canciones de Sonido Basico