Encararte, Sonido Basico (tablatura)

Autor: luis_my01 | 25173 visualizaciones

e---------------------------------------------------------------
B--1-1-1---3----5---1---3-----0-0-0--1---3---0---1--------------
G---------------------------------------------------------------
D---------------------------------------------------------------
A---------------------------------------------------------------
E---------------------------------------------------------------

e---------------------------------------------------------------
B--1-1---0------------------------------------1---3-------------
G------------2--0----------------------2--0---------------------
D--------------------0---1-----1-1--0---------------------------
A---------------------------------------------------------------
E---------------------------------------------------------------

e---------------------------------------------------------------
B---1-1---3---5---3----1---3------------------------------------
G---------------------------------------------------------------
D---------------------------------------------------------------
A---------------------------------------------------------------
E---------------------------------------------------------------
Calificar esta versión:
Aviso: Este fichero es trabajo propio de su transcriptor y representa su interpretación personal de la canción. El material contenido en esta página es para exclusivo uso privado, por lo que se prohibe su reproducción o retransmisión, así como su uso para fines comerciales.
Más versiones de Encararte, Sonido Basico
Encararte
acordes
Encararte
tablatura
Encararte (ver 2)
tablatura
Descubre más canciones de Sonido Basico