La Fé De María, Son By Four (tablatura)

Autor: Anónimo | 43644 visualizaciones

LA FE DE MARIA - SON BY4


Intro

                         Uhh huuhh!           Oh uhhhh      yeah yeah
               Cm           F                 LA#   FA       Gm
e|--------------------------------------------------------------------|
B|--11-13-13s1515-15h1616----------10-11-11s1313--13s15-----11p10-11--|
G|--------------------------------------------------------------------|

   Gm          Cm           F         Gm      F      LA#
e|--------------------------------------------------------------------|
B|--11-13-13s1515-15h1616----------9s10-11-11s13-13---11--------------|
G|--------------------------------------------------------------------|



               Gm        Cm          FA      LA#  FA
Que hubiese pasado, si ella hubiese dicho que no
       Gm        Cm          FA                   LA#  FA
O ignorado, o dilatado, el anuncio e su ángel de amor

       Gm              D#      F
e|------3---3---3---3---3---3---1-------|
B|-----3---3---3---3---3---3---1-1-1----|
G|----3---3---3---3---3---3---2---2-----|
D|---5---4---3---2---1---1---3----------|
A|--------------------------------------|
E|--------------------------------------|


En cambio creyó en tu palabra, y se hizo tu esclaaava,
En un acto perfecto y de fé



        Gm      Cm        D#      F
e|------3---3---3---3---3---3---1-------|
B|-----3---3---3---3---3---3---1-1-1----|
G|----3---3---3---3---3---3---2---2-----|
D|---5---4-----------1---1---3----------|
A|-----------3---3----------------------|
E|--------------------------------------|

e|--------------------|
B|--------------------|
G|-12-14-1214-14s15---|


Y hoy quiero ser como ella, y amarte aunque duelaaa,
Las espinas y el camino de la cruz




Coro
LA#      Cm          FA         LA#  FA  Gm
         (Dame la fe señor)
Dame la fe     señor, la fe de Maríiiia

LA#    Cm       FA             LA#  FA  Gm
                  (un si sin medidas)
Para decirte si,   un si sin medidas

LA#      Cm          FA         LA#  FA  Gm
         (Dame la fe señor)
Dame la fe     señor, la fe de Maríiiia

Gm       D#               FA                 LA#    Gm
          (Para renunciar a mi)(y entregarte mi vida)
Para renunciar A MI,            y entregarte mi vida



Mi vida!


Aunque traspasaron, con una espada su corazón,
Y su alma lloro el dolor de tus heridas,
A los pies del madero se quedooo.

Y hoy ella es, nuestra reina y señora,
Y tu nos incorporas, a tu eterna familia de amor,
Y yo en tu amor quiero permaneceeer,
Postrado a tus pieieies, es lo único que un dia llevaré.



         (Dame la fe señor)
Dame la fe     señor, la fe de Maríiiia

                         (un si sin medidas)
Para decir que si, oh si, un si sin medidas


Dame, Dame,
         (Dame la fe señor)
Dame la fe     señor, la fe de Maríiiia

          (Para renunciar a mi)(y entregarte mi vida)
Para renunciar A MI, A MI       y entregarte mi vida


Oh mi vida…
Calificar esta versión:
Aviso: Este fichero es trabajo propio de su transcriptor y representa su interpretación personal de la canción. El material contenido en esta página es para exclusivo uso privado, por lo que se prohibe su reproducción o retransmisión, así como su uso para fines comerciales.
Más versiones de La Fé De María, Son By Four
La Fe De María
acordes
La Fe De María (ver 2)
acordes
La Fé De María
tablatura
Descubre más canciones de Son By Four