My Plague, Slipknot (tablatura)

Autor: blackhope | 29242 visualizaciones



My plague (De slipknot)                             


Guitar
     S S S S E  Q     E  E   E   3x  S S S S E  Q     E  E   E   
E||------------------------------||-----------------------------|
B||------------------------------||-----------------------------|
G||-----------------------------*||-----------------------------|
D||-----------------------------*||-----------------------------|
A||--0-0-0-0-0-------------------||--0-0-0-0-0------------------|
E||--0-0-0-0-0--1h----2--2p--1---||--0-0-0-0-0--1h----2--2p--1--|


  S S S S E  Q     E  E   E     S S S S E  Q     E  E   E   
-----------------------------|-----------------------------|
-----------------------------|-----------------------------|
-----------------------------|-----------------------------|
-----------------------------|-----------------------------|
--0-0-0-0-0------------------|--0-0-0-0-0------------------|
--0-0-0-0-0--1h----2--2p--1--|--0-0-0-0-0--1h----2--2p--1--|


  S S S S E  Q     E  E   E     S S S S E  H        E   
-----------------------------|-------------------------|
-----------------------------|-------------------------|
-----------------------------|-------------------------|
-----------------------------|-------------------------|
--0-0-0-0-0------------------|--0-0-0-0-0-----------1--|
--0-0-0-0-0--1h----2--2p--1--|--0-0-0-0-0-----------1--|


  S S S S E  Q     E  E   E     S S S S E  Q     E  E   E   
-----------------------------|-----------------------------|
-----------------------------|-----------------------------|
-----------------------------|-----------------------------|
-----------------------------|-----------------------------|
--0-0-0-0-0------------------|--0-0-0-0-0------------------|
--0-0-0-0-0--1h----2--2p--1--|--0-0-0-0-0--1h----2--2p--1--|


  S S S S E  Q     E  E   E     E  E  E  E  H         
-----------------------------|-----------------------|
-----------------------------|-----------------------|
-----------------------------|-----------------------|
-----------------------------|-----------------------|
--0-0-0-0-0------------------|--0--0--0--1-----------|
--0-0-0-0-0--1h----2--2p--1--|--0--0--0--1-----------|


  E  E  E  Q     E  E   E     E  E  E  Q     E  E   E   
---------------------------|---------------------------|
---------------------------|---------------------------|
---------------------------|---------------------------|
---------------------------|---------------------------|
--0--0--0--1h----2--2---1--|--0--0--0--1h----2--2---1--|
--0--0--0--1h----2--2p--1--|--0--0--0--1h----2--2p--1--|


 


 E  E  E  Q     E  E   E     E  E  E  Q     E  E   E   
---------------------------|---------------------------|
---------------------------|---------------------------|
---------------------------|---------------------------|
---------------------------|---------------------------|
--0--0--0--1h----2--2---1--|--0--0--0--1h----2--2---1--|
--0--0--0--1h----2--2p--1--|--0--0--0--1h----2--2p--1--|


  E  E  E  Q     E  E   E     E  E  E  Q     E  E   E   
---------------------------|---------------------------|
---------------------------|---------------------------|
---------------------------|---------------------------|
---------------------------|---------------------------|
--0--0--0--1h----2--2---1--|--0--0--0--1h----2--2---1--|
--0--0--0--1h----2--2p--1--|--0--0--0--1h----2--2p--1--|


  E  E  E  Q     E  E   E     E  E  E  Q     E  E   E     W                 
---------------------------|---------------------------|-------------------|
---------------------------|---------------------------|-------------------|
---------------------------|---------------------------|-------------------|
---------------------------|---------------------------|-------------------|
--0--0--0--1h----2--2---1--|--0--0--0--1h----2--2---1--|-------------------|
--0--0--0--1h----2--2p--1--|--0--0--0--1h----2--2p--1--|-------------------|


  W                   W                   W                 
-------------------|-------------------|-------------------|
-------------------|-------------------|-------------------|
-------------------|-------------------|-------------------|
-------------------|-------------------|-------------------|
-------------------|-------------------|-------------------|
-------------------|-------------------|-------------------|


  E  E  E  Q     E  E   E     E  E  E  Q     E  E   E   
---------------------------|---------------------------|
---------------------------|---------------------------|
---------------------------|---------------------------|
---------------------------|---------------------------|
--0--0--0--1h----2--2---1--|--0--0--0--1h----2--2---1--|
--0--0--0--1h----2--2p--1--|--0--0--0--1h----2--2p--1--|


  E  E  E  Q     E  E   E     E  E  E  Q     E  E   E   
---------------------------|---------------------------|
---------------------------|---------------------------|
---------------------------|---------------------------|
---------------------------|---------------------------|
--0--0--0--1h----2--2---1--|--0--0--0--1h----2--2---1--|
--0--0--0--1h----2--2p--1--|--0--0--0--1h----2--2p--1--|


  E  E  E  Q     E  E   E     E  E  E  Q     E  E   E   
---------------------------|---------------------------|
---------------------------|---------------------------|
---------------------------|---------------------------|
---------------------------|---------------------------|
--0--0--0--1h----2--2---1--|--0--0--0--1h----2--2---1--|
--0--0--0--1h----2--2p--1--|--0--0--0--1h----2--2p--1--|


  
E  E  E  Q     E  E   E     E  E  E  Q     E  E   E   
---------------------------|---------------------------|
---------------------------|---------------------------|
---------------------------|---------------------------|
---------------------------|---------------------------|
--0--0--0--1h----2--2---1--|--0--0--0--1h----2--2---1--|
--0--0--0--1h----2--2p--1--|--0--0--0--1h----2--2p--1--|


                                                           W   
    E  E  E  Q    E  E   E       E   E   E   Q     E   E   E   
|----------------------------|--------------------------------|
|----------------------------|--------------------------------|
|*-----------7----7--7--10h--|--10--10--10--12----12--12--11--|
|*-----------x----x--x---x---|---x---x---x---x-----x---x------|
|---0--0--0--5----5--5---8h--|---8---8---8--10----10--10------|
|---0--0--0------------------|--------------------------------|


   E    E    E    E    E    E    E    E      E  E  E  Q    E  E   E    
------------------------------------------|---------------------------|
---8b---8b---8b---8b---8b---8b---8b---8b--|---------------------------|
--10---10---10---10---10---10---10---10---|-----------7----7--7--10h--|
------------------------------------------|-----------x----x--x---x---|
------------------------------------------|--0--0--0--5----5--5---8h--|
------------------------------------------|--0--0--0------------------|


   E   E   E   Q     E   E  E      E  E  E  E  E  E  E  E   
--------------------------------|--------------------------|
--------------------------------|--------------------------|
--10--10--10--12----12--12------|--------------------------|
---x---x---x---x-----x---x------|--------------------------|
---8---8---8--10----10--10--2---|--2--2--2--2--2--2--2--2--|
----------------------------2h--|--2--2--2--2--2--2--2--2--|


  E  E  E  E  E  E  E  E       E  E  E  Q     E  E   E   
---------------------------||---------------------------|
---------------------------||---------------------------|
--------------------------*||---------------------------|
--------------------------*||---------------------------|
--6--6--6--6--6--6--6--0---||--0--0--0--1h----2--2---1--|
--6--6--6--6--6--6--6--0---||--0--0--0--1h----2--2p--1--|


  E  E  E  Q     E  E   E     E  E  E  Q     E  E   E   
---------------------------|---------------------------|
---------------------------|---------------------------|
---------------------------|---------------------------|
---------------------------|---------------------------|
--0--0--0--1h----2--2---1--|--0--0--0--1h----2--2---1--|
--0--0--0--1h----2--2p--1--|--0--0--0--1h----2--2p--1--|


 


 E  E  E  Q     E  E   E     E  E  E  Q     E  E   E   
---------------------------|---------------------------|
---------------------------|---------------------------|
---------------------------|---------------------------|
---------------------------|---------------------------|
--0--0--0--1h----2--2---1--|--0--0--0--1h----2--2---1--|
--0--0--0--1h----2--2p--1--|--0--0--0--1h----2--2p--1--|


  E  E  E  Q     E  E   E     E  E  E  Q     E  E   E   
---------------------------|---------------------------|
---------------------------|---------------------------|
---------------------------|---------------------------|
---------------------------|---------------------------|
--0--0--0--1h----2--2---1--|--0--0--0--1h----2--2---1--|
--0--0--0--1h----2--2p--1--|--0--0--0--1h----2--2p--1--|


  E  E  E  Q     E  E   E       E  E  E  Q    E  E   E    
---------------------------||----------------------------|
---------------------------||----------------------------|
---------------------------||*-----------7----7--7--10h--|
---------------------------||*-----------x----x--x---x---|
--0--0--0--1h----2--2---1--||---0--0--0--5----5--5---8h--|
--0--0--0--1h----2--2p--1--||---0--0--0------------------|


                             W                                              
   E   E   E   Q     E   E   E      E    E    E    E    E    E    E    E    
--------------------------------|------------------------------------------|
--------------------------------|---8b---8b---8b---8b---8b---8b---8b---8b--|
--10--10--10--12----12--12--11--|--10---10---10---10---10---10---10---10---|
---x---x---x---x-----x---x------|------------------------------------------|
---8---8---8--10----10--10------|------------------------------------------|
--------------------------------|------------------------------------------|


  E  E  E  Q    E  E   E       E   E   E   Q     E   E  E    
---------------------------|--------------------------------|
---------------------------|--------------------------------|
-----------7----7--7--10h--|--10--10--10--12----12--12------|
-----------x----x--x---x---|---x---x---x---x-----x---x------|
--0--0--0--5----5--5---8h--|---8---8---8--10----10--10--2---|
--0--0--0------------------|----------------------------2h--|


  E  E  E  E  E  E  E  E     E  E  E  E  E  E  E  E     
--------------------------|---------------------------||
--------------------------|---------------------------||
--------------------------|--------------------------*||
--------------------------|--------------------------*||
--2--2--2--2--2--2--2--2--|--6--6--6--6--6--6--6--0---||
--2--2--2--2--2--2--2--2--|--6--6--6--6--6--6--6--0---||


  





 E  E  E  E  E  Q    E     E  Q    E  E  E  E  E   4x
--------------------------|--------------------------||
--------------------------|--------------------------||
*-------------------------|-------------------------*||
*-------------------------|----------3--2-----4-----*||
------------4--3----------|----------------2-----3---||
---0--3--2-------------4--|--3-----------------------||






   E  E  E  E  E   E  E   E     E  E   E   E   E  E  E  E  11x
-----------------------------|------------------------------||
-----------------------------|------------------------------||
*----------------------------|-----------------------------*||
*----------------------------|-----2h--3p--2p--0-----4-----*||
---0--3--2--0--3h--4---------|--------------------2-----3---||
---0--3--2--0---------3h--4--|--0---------------------------||


                                                          W   
   E  E  E  Q    E  E   E       E   E   E   Q     E   E   E   
----------------------------|--------------------------------|
----------------------------|--------------------------------|
*-----------7----7--7--10h--|--10--10--10--12----12--12--11--|
*-----------x----x--x---x---|---x---x---x---x-----x---x------|
---0--0--0--5----5--5---8h--|---8---8---8--10----10--10------|
---0--0--0------------------|--------------------------------|


   E    E    E    E    E    E    E    E      E  E  E  Q    E  E   E    
------------------------------------------|---------------------------|
---8b---8b---8b---8b---8b---8b---8b---8b--|---------------------------|
--10---10---10---10---10---10---10---10---|-----------7----7--7--10h--|
------------------------------------------|-----------x----x--x---x---|
------------------------------------------|--0--0--0--5----5--5---8h--|
------------------------------------------|--0--0--0------------------|


   E   E   E   Q     E   E  E      E  E  E  E  E  E  E  E   
--------------------------------|--------------------------|
--------------------------------|--------------------------|
--10--10--10--12----12--12------|--------------------------|
---x---x---x---x-----x---x------|--------------------------|
---8---8---8--10----10--10--2---|--2--2--2--2--2--2--2--2--|
----------------------------2h--|--2--2--2--2--2--2--2--2--|


  E  E  E  E  E  E  E  E       E  E  E  Q    E  E  E   
---------------------------||-------------------------|
---------------------------||-------------------------|
--------------------------*||-------------------------|
--------------------------*||-------------------------|
--6--6--6--6--6--6--6--0---||--0--0--0--0----0--0--3--|
--6--6--6--6--6--6--6--0---||--0--0--0--0----0--0--3--|


  

E  E  E  Q    E  E  E     E  E  E  E  E  E  E  E     E  E  E  E  E  E  E  E   
-------------------------|--------------------------|--------------------------|
-------------------------|--------------------------|--------------------------|
-------------------------|--------------------------|--------------------------|
-----------3----3--3-----|--------------------------|--------------------------|
--L--3--3--3----3--3--2--|--2--2--2--2--2--2--2--2--|--6--6--6--6--6--6--6--0--|
--L--3--3-------------2--|--2--2--2--2--2--2--2--2--|--6--6--6--6--6--6--6--0--|




 E  E  E  Q    E  E  E     E  E  E  Q    E  E  E     E  E  E  E  E  E  E  E   
-------------------------|-------------------------|--------------------------|
-------------------------|-------------------------|--------------------------|
-------------------------|-------------------------|--------------------------|
-------------------------|-----------3----3--3-----|--------------------------|
--0--0--0--0----0--0--3--|--L--3--3--3----3--3--2--|--2--2--2--2--2--2--2--2--|
--L--0--0--0----0--0--3--|--L--3--3-------------2--|--2--2--2--2--2--2--2--2--|


 
 E  E  E  E  E  E  E  E     E  E  E  Q    E  E  E     E  E  E  Q    E  E  E   
--------------------------|-------------------------|-------------------------|
--------------------------|-------------------------|-------------------------|
--------------------------|-------------------------|-------------------------|
--------------------------|-------------------------|-----------3----3--3-----|
--6--6--6--6--6--6--6--0--|--L--0--0--0----0--0--3--|--L--3--3--3----3--3--2--|
--6--6--6--6--6--6--6--0--|--L--0--0--0----0--0--3--|--L--3--3-------------2--|


  E  E  E  E  E  E  E  E     E  E  E  E  E  E  E  E     E  E  E  Q    E  E  E   
--------------------------|--------------------------|-------------------------|
--------------------------|--------------------------|-------------------------|
--------------------------|--------------------------|-------------------------|
--------------------------|--------------------------|-------------------------|
--2--2--2--2--2--2--2--2--|--6--6--6--6--6--6--6--0--|--L--0--0--0----0--0--3--|
--2--2--2--2--2--2--2--2--|--6--6--6--6--6--6--6--0--|--L--0--0--0----0--0--3--|


  E  E  E  Q    E  E  E     E  E  E  E  E  E  E  E     E  E  E  E  E  E  E  E   
-------------------------|--------------------------|--------------------------|
-------------------------|--------------------------|--------------------------|
-------------------------|--------------------------|--------------------------|
-----------3----3--3-----|--------------------------|--------------------------|
--L--3--3--3----3--3--2--|--2--2--2--2--2--2--2--2--|--6--6--6--6--6--6--6--0--|
--L--3--3-------------2--|--2--2--2--2--2--2--2--2--|--6--6--6--6--6--6--6--0--|


    E  E  E  Q     E  E   E   7x   S S S S E  Q     E  E   E   3x
|-----------------------------||-------------------------------||
|-----------------------------||-------------------------------||
|*---------------------------*||*-----------------------------*||
|*---------------------------*||*-----------------------------*||
|---0--0--0--1h----2--2---1---||---0-0-0-0-0-------------------||
|---0--0--0--1h----2--2p--1---||---0-0-0-0-0--1h----2--2p--1---||



 
 

S S S S E  Q     E  E  E    
----------------------------||
----------------------------||
----------------------------||
----------------------------||
--0-0-0-0-0-----------------||
--0-0-0-0-0--1h----2--2-----||








Duration Legend
---------------
W - whole
H - half
Q - quarter
E - 8th
S - 16th
T - 32nd
X - 64th
. - note dotted
|-n-|  - n-tuplets




Tablature Legend
----------------
L - tied note
x - dead note
g - grace note
(n) - ghost note
> - accentuded note
NH - natural harmonic
AH - artificial harmonic
TH - tapped harmonic
SH - semi harmonic
PH - pitch harmonic
h - hammer on
p - pull off
b - bend
br - bendRelease
pb - preBend
pbr - preBendRelease
brb - bendReleaseBend
\n/ - tremolo bar dip
\n - tremolo bar dive
-/n - tremolo bar Release up
/n\ - tremolo bar inverted dip
/n - tremolo bar return
-\n - tremolo bar Release down
S - shift slide
s - legato slide
/ -  slide into from below or out of upwards
\ -  slide into from above or out of downwards
~ - vibrato
W - wide vibrato
tr - trill
TP - tremolo picking
T - tapping
S - slap
P - pop
< - fade in
^ - brush up
v - brush down





Calificar esta versión:
Aviso: Este fichero es trabajo propio de su transcriptor y representa su interpretación personal de la canción. El material contenido en esta página es para exclusivo uso privado, por lo que se prohibe su reproducción o retransmisión, así como su uso para fines comerciales.
Más versiones de My Plague, Slipknot
My Plague
acordes
My Plague
tablatura
My Plague (ver 2)
tablatura
My Plague
bajo
Descubre más canciones de Slipknot