My Plague, Slipknot (acordes)

Autor: SLIDEFIRE | 44529 visualizaciones



MY PLAGUE [  Slipknot ]

RIFF 1
X7
E|--------------------|
B|--------------------|
G|--------------------|
D|--------------------|
A|-00-0-0-------------|
E|-00-0-0--1-h2-2p1---|

RIFF 2

E|----------------|
B|----------------|
G|----------------|
D|----------------|
A|00-0-0----------|
E|00-0-0----------|

RIFF 3
X3
E|-------------------|
B|-------------------|
G|-------------------|
D|-------------------|
A|-0-0-0-------------|
E|-0-0-0--1-h2-2p1---|

RIFF 4

E|-----------------|
B|-----------------|
G|-----------------|
D|-----------------|
A|0-0-0-0----------|
E|0-0-0-0----------|

RIFF 3
X8
E|-------------------|
B|-------------------|
G|-------------------|
D|-------------------|
A|-0-0-0-------------|
E|-0-0-0--1-h2-2p1---|

RIFF 5

E|------------------------------------------------------------------------------|
B|------------------------------------------------------------------------------|
G|------------------------------------------------------------------------------|
D|------------------------------------------------------------------------------|
A|------------------------------------------------------------------------------|
E|-17\\\\\\---------------------------------------------------------------------|

RIFF 3
X8
E|-------------------|
B|-------------------|
G|-------------------|
D|-------------------|
A|-0-0-0-------------|
E|-0-0-0--1-h2-2p1---|

RIFF 6
X2
E|--------------------|--------------------|-------------------|----------------|
B|--------------------|-8---8--8--8--8-/---|-------------------|----------------|
G|--------------------|11b-11b11b11b11b/---|-------------------|----------------|
D|----7-10--12--------|--------------------|---7-10--12--------|----------------|
A|-0--5--8--10--------|--------------------|0--5--8--10--------|22222222-555555-|
E|-0------------------|--------------------|0------------------|22222222-555555-|



RIFF 1
X2
E|--------------------|
B|--------------------|
G|--------------------|
D|--------------------|
A|-00-0-0-------------|
E|-00-0-0--1-h2-2p1---|

RIFF 3
X8
E|-------------------|
B|-------------------|
G|-------------------|
D|-------------------|
A|-0-0-0-------------|
E|-0-0-0--1-h2-2p1---|

RIFF 7

E|--------------------|--------------------|-------------------|----------------|
B|--------------------|--------------------|-------------------|----------------|
G|--------------------|--------------------|-------------------|----------------|
D|--------------------|--------------------|-------------------|----------------|
A|-22222222-----------|--------------------|-------------------|----------------|
E|-22222222-----------|--------------------|-------------------|----------------|

RIFF 6
X2
E|--------------------|--------------------|-------------------|----------------|
B|--------------------|-8---8--8--8--8-/---|-------------------|----------------|
G|--------------------|11b-11b11b11b11b/---|-------------------|----------------|
D|----7-10--12--------|--------------------|---7-10--12--------|----------------|
A|-0--5--8--10--------|--------------------|0--5--8--10--------|22222222-555555-|
E|-0------------------|--------------------|0------------------|22222222-555555-|

RIFF 8
X4
E|--------------------|
B|--------------------|
G|--------------------|
D|--------------------|
A|------43----8----98-|
E|-0-32----43---98----|

RIFF 9
X2
E|--------------------|--------------------|
B|--------------------|--------------------|
G|--------------------|--------------------|
D|--------------------|--------------------|
A|-0-3-2-0--3h4-------|-7h8p7------9p8-----|
E|-0-3-2-0------3h4---|-------12p9---------|

RIFF 6
X2
E|--------------------|--------------------|-------------------|----------------|
B|--------------------|-8---8--8--8--8-/---|-------------------|----------------|
G|--------------------|11b-11b11b11b11b/---|-------------------|----------------|
D|----7-10--12--------|--------------------|---7-10--12--------|----------------|
A|-0--5--8--10--------|--------------------|0--5--8--10--------|22222222-555555-|
E|-0------------------|--------------------|0------------------|22222222-555555-|

RIFF 10

E|--------------------|--------------------|-------------------|----------------|
B|--------------------|--------------------|-------------------|----------------|
G|---7-10--10--4tp-5tp|--7-10--10--4tp-5tp-|--7-10--10--4tp-5tp|--7-10--10------|
D|---x--x---x--x---x--|--x--x---x--x---x---|--x--x---x--x---x--|--x--x---x-4--5-|
A|-0-5--8-0-8--2tp-3tp|0-5--8-0-8--2tp-3tp-|0-5--8-0-8--2tp-3tp|0-5--8-0-8-x--x-|
E|-0------------------|0-------------------|0------------------|0----------2--3-|






RIFF 3
X4
E|-------------------|
B|-------------------|
G|-------------------|
D|-------------------|
A|-0-0-0-------------|
E|-0-0-0--1-h2-2p1---|

RIFF 11
X2
E|--------------------||----------------------||
B|--------------------||----------------------||
G|--------------------||*--------------------*||
D|--------------------||*--------------------*||
A|------------01-h22p1||-0-0-0-0-0--01-h2-2p1-||
E|-0-0-0-0-0--01-h22p1||-0-0-0-0-0--01-h2-2p1-||

RIFF 12
X4
E|--------------------|
B|--------------------|
G|--------------------|
D|--------------------|
A|--------------------|
E|-1-h2-2p1-----------|





Calificar esta versión:
Aviso: Este fichero es trabajo propio de su transcriptor y representa su interpretación personal de la canción. El material contenido en esta página es para exclusivo uso privado, por lo que se prohibe su reproducción o retransmisión, así como su uso para fines comerciales.
Más versiones de My Plague, Slipknot
My Plague
acordes
My Plague
tablatura
My Plague (ver 2)
tablatura
My Plague
bajo
Descubre más canciones de Slipknot