Dead Memories, Slipknot (tablatura) (ver 3)

Autor: wheels02 | 21947 visualizaciones



B,F#,B,E,G#,C#

Intro
C#||---------------------------|-----------------------------||
G#||---------------------------|-----------------------------||
E ||*--------------------------|----------------------------*||
B ||*--------8--------8--------|--------8---------8------8--*||
F#||------5--------5--------5--|-----5---------5-------------||
B ||---5--------8--------6-----|--5---------5---------5------||
 Do that 2 times ^, on 3rd time do this?.
--------------------------|--------------------------|
--------------------------|--------------------------|
--------------------------|--------------------------|
--------8--------8--------|--------8--------8-----8--|
-----5--------5--------5--|-----5--------5-----------|
--5--------6--------8-----|--5--------5--------5-----|

And then both guitars do this fill into the verse?
|---------------------|
|---------------------|
|---------------------|
|--5------8------6----|
|--5------8------6----|
|--5------8------6----|
                                                                    ----------------------------------|
----------------------------------|
----14--14\12--12\7--7\5--7-------|
----------------------------------|
----12--12\10--10\5--5\3--5-------|
----------------------------------|

Verse


C#||---------------------------|-----------------------------||
G#||---------------------------|-----------------------------||
E ||*--------------------------|----------------------------*||
B ||*--------8--------8--------|--------8---------8------8--*||
F#||------5--------5--------5--|-----5---------5-------------||
B ||---5--------8--------6-----|--5---------5---------5------||

Do that 1st, 2nd, and 4th times ^

--------------------------|--------------------------|
--------------------------|--------------------------|
--------------------------|--------------------------|
--------8--------8--------|--------8--------8-----8--|
-----5--------5--------5--|-----5--------5-----------|
--5--------6--------8-----|--5--------5--------5-----|

And this on the 3rd time ^
Pre Chorus
|-------------------------------------------|
|-------------------------------------------|
|-------------------------------------------|
|-----------------------0-0-0--6-6-6-6-6-6-6|
|-----------------------0-0-0--6-6-6-6-6-6-6|
|--5---8---7----3*--0---0-0-0--6-6-6-6-6-6-6|
			   P.M.   ????.
 Do this on the 1st and 3rd times ^
|-------------------------------------------|
|-------------------------------------------|
|-------------------------------------------|
|-----------------------0-0-0--6-6-6--------|
|-----------------------0-0-0--6-6-6-6-3----|
|--5---8---7----3*--0---0-0-0--6-6-6-----6-1|

Do this on the 2nd and 4th times ^

Chorus
I kno theyre are 2 guitars going but I combined it into 1 part to make it easier
|-------------------------------------------|
|-------------------------------------------|
|-------------------------------------------|
|-8-8-8-7-7-7-------------------------------|
|-5-5-5-5-5-5-8-8---13-13-13-12-12-12-13-13-|
|-5-5-5-5-5-5-5-5---8--8--8--8--8--8--8--8--|

Use this fill on 1st and 3rd times....

|-------------------------------------------------------|
|-------------------------------------------------------|
|-------------------------------------------------------|
|-------------------------------------------------------|
|-13-13-13-12-12-12-8-8---13-13-13-12-12-12-13-13-------|
|-0--0--0--0--0--0--0-0---10-10-10-10-10-10-10-10-------|

Use this fill on 2nd and 4th time....

|-------------------------------------------|
|-------------------------------------------|
|-------------------------------------------|
|-3-3-3-2---1-1-1-0-------------------------|
|-3-3-3-2---1-1-1-0-------------------------|
|-3-3-3-2---1-1-1-0-------------------------|
I don?t have a tab for the solo but the rhythm for the solo is the prechorus riff I have 
u above

The clean part at the end that Jim plays goes something like this

|------5----------------------------------------------------------|
|---------6---------10--11-------10---------------10h11--11-------|
|------------------------------------10---------------------------|
|-5--5---------8--8--------0--0------------10--10-----------------|
|-----------------------------------------------------------------|
|-----------------------------------------------------------------|





Comentarios del colaborador: http://www.ultimate-guitar.com/search.php?search_type=title&value=eyeless

Calificar esta versión:
Aviso: Este fichero es trabajo propio de su transcriptor y representa su interpretación personal de la canción. El material contenido en esta página es para exclusivo uso privado, por lo que se prohibe su reproducción o retransmisión, así como su uso para fines comerciales.
Más versiones de Dead Memories, Slipknot
Dead Memories
tablatura
Dead Memories (ver 2)
tablatura
Dead Memories (ver 3)
tablatura
Descubre más canciones de Slipknot